» » »

Vanna, Safe To Say Bass tabs (ver.1)

Artists:  A B C D E F G H I J K L M N O P Q R S T U V W X Y Z # 

Safe To Say Bass tabs (ver.1)

Vanna Tabs
Rating:
5/5 (1 vote)
Hard to play? Try these video lessons and learn fast.
                Vanna

Standard 5 string


This is how i play it. The notes are right, you figure out the rhythm. There are 2 parts 
had trouble with:
in the breakdown (the little fill), and in the soft part (of course...). But this will 
you through the song.



G :--------------------|
D :--------------------|
A :--------------------|
E :-----------333------|
B :-0-0~~--------5555--|

  "Lets leave this place behind..."
G :---------------------------------------------------------------------------|
D :---------------------------------------------------------------------------|
A :---------------------------------------------------------------------------|
E :----------00-000-0-33-333-3-00-000-0----------00-000-0-33-333-3-000000000--|
B :-00-000-0----------------------------00-000-0------------------------------|

G :-----------------------------------------------------------------------|
D :-----------------------------------------------------------------------|
A :-----------------------------------------------------------------------|
E :----------0-00-000-3-33-333-0-00-000----------0-00-000-333-333-355-57--|
B :-0-00-000----------------------------0-00-000--------------------------|

  "Its time to get out of this town..."
G :----------------|   x3
D :----------------|
A :----------------|
E :----------------|
B :-00-000-000-00--|    let the 0's ring

G :------------------------|
D :------------------------|
A :------------------------|
E :-333333333333333355555--|
B :------------------------|

"These words don't always come out right..."
G :------------------------------------------------------------------------   |
D :------------------------------------------------------------------------   |
A :------------------------------------------------------------------------   |
E :-7-7-5-7/-33-7-7-5-7/-333333333333333312121212121212121212121212121212--   |
B :------------------------------------------------------------------------    \
                                                                                >  x2  
G :--------------------------------------------------------                    /
D :--------------------------------------------------------                   |
A :--------------------------------------0000000000000000--                   |
E :-7-7-57575--7-7-57575-3333333333333333------------------                   |
B :--------------------------------------------------------                   |

G :------------------------------|
D :------------------------------|
A :------------------------------|
E :---------------3-3-3~-0-0-0~--|
B :-0-0-0~-0-0-0~----------------|


  "It was only fair..."
G :------------------------------------------------------------------|
D :------------------------------------------------------------------|
A :------------------------------------------------------------------|
E :----------------------------------3-33-33~-33-3-0-00-00~-00-00-0--|
B :-0-00-00~-00-0000-0-00-00~-00-0000--------------------------------|

  "With empty hands..."
G :-------------------------------------------------------------------|  x2
D :-------------------------------------------------------------------|
A :-------------------------------------------------------------------|
E :---------------------------------33333333333333330000000000000000--|
B :-00000000000000000000000000000000----------------------------------|


G :------------------------------------------------|  x2
D :------------------------------------------------|
A :-------------0575003530-------------------------|
E :------------------------------------------------|
B :-0-000-0-000------------0-000-0-00-00-00-00-00--|

G :----------------------------------------------------|  x2
D :----------------------------------------------------|
A :-----------------0575003530-------------------------|
E :----------------------------------------------------|
B :-0~-000~-0~-000~------------0-000-0-00-00~--00-00~--|


  "We've all had our enemies..."
G :-------------------------------------|
D :-------------------------------------|
A :------------------------7~5---75-----|
E :-3-3\-0-0~-057-7\-07-77-----7----70--|
B :-------------------------------------|

G :-------------------------------------|
D :-------------------------------------|
A :-------------------------7~5--975----|
E :-3-3\-0-0~-057-7\--07-77-----7---70--|
B :-------------------------------------|

G :-------------------------------------|
D :-------------------------------------|
A :------------------------7~5---75-----|
E :-3-3\-0-0~-057-7\-07-77-----7----70--|
B :-------------------------------------|

G :-------------------------------------|
D :-------------------------------------|
A :------------------------7~5---97-----|
E :-3-3\-0~0~-/5757--07-77-----7---2/5--|
B :-------------------------------------|


  "...You can see it in my eyes..."
G :--------------------------------------|
D :---------------------2-2--2~--2--200--|
A :---5-5--5~--5--5----------------------|
E :-33-3-33--33-33-3--22-2-22--22-22-----|
B :--------------------------------------|

G :---------------------------------------------|
D :---------------------------------------------|
A :---5-5--5------------------------------------|
E :-33-3-33-3333333322222222171717171717171717--|
B :---------------------------------------------|

 "These words don't always come out right..."
G :------------------------------------------------------------------------   |
D :------------------------------------------------------------------------   |
A :------------------------------------------------------------------------   |
E :-7-7-5-7/-33-7-7-5-7/-333333333333333312121212121212121212121212121212--   |
B :------------------------------------------------------------------------    \
                                                                                >  x2  
G :--------------------------------------------------------                    /
D :--------------------------------------------------------                   |
A :--------------------------------------0000000000000000--                   |
E :-7-7-57575--7-7-57575-3333333333333333------------------                   |
B :--------------------------------------------------------                   |


  "I'll leave my heart there by your bedside..."
G :--------------------------------------------   |
D :--------------------------------------------   |
A :-00000000/1212121212121212------------------   |
E :--------------------------3333333330000000--   |
B :--------------------------------------------    \
						    >  x2
G :-----------------------------------	           /
D :-----------------------------------	          |
A :-----------------------------------	          |
E :-----------------3333333330000000--	          |
B :-0000000033333333------------------	          |

G :------|
D :------|
A :------|
E :------|
B :-3~~--|
            

comments powered by Disqus
↑ Back to top | Vanna Bass for Safe To Say. Lyrics for acoustic guitar and electric guitar. Tablatures and chords are parodies/interpretations of the original songs. You may use it for private study, scholarship, research or language learning purposes only