» » »

Home Tabs (ver.1)

Artists:  A B C D E F G H I J K L M N O P Q R S T U V W X Y Z # 

Home Tabs (ver.1)

Vanna
Rating:
5/5 (2 votes)

Hard to play? Try these video lessons and learn fast.
                -------------------------------------------------------------------------------
-------------------------------------------------------------------------------

Tuning:drop B

  Rythym
|--------------------------------------------------------------------------|
|--------------------------------------------------------------------------|
|--------------------------------------------------------------------------|
|--------------------------------------------------------------------------|
|----7bend-------7bend--------------8/10-------8/10---10\8-----------------|
|0-7---------0-7-------5/7------0-7--------0-7-----------------------------|

  lead
|--------------------------------------------------------------------------|
|--------------------------------------------------------------------------|
|9h10p9--------------9h10p9------------------------------------------------|
|-------10--10h12-----------10--10h12--------------------------------------|
|------------------------------------10-10h12------------------------------|
|--------------------------------------------------------------------------|

  2nd lead
|12--------------------12----------///15-----------------------------------|
|---12-13-----------------12-13--------------------------------------------|
|---------12-12h14--------------12-----------------------------------------|
|--------------------------------------------------------------------------|
|--------------------------------------------------------------------------|
|--------------------------------------------------------------------------|


| /  slide up
| \  slide down
| h  hammer-on
| p  pull-off
| ~  vibrato
| +  harmonic
| x  Mute note
===============================================================================
            
Hard to play? Try these video lessons and learn fast. | Correct




comments powered by Disqus
↑ Back to top | Tablatures and chords are parodies/interpretations of the original songs. You may use it for private study, scholarship, research or language learning purposes only