>
 >
A Dead Language For A Dying Lady

A Dead Language For A Dying Lady Guitar Tabs

Vanna - A Dead Language For A Dying Lady chords, tabs, tablatures, lyrics

Guitar lessons | Add/correct | Request | Top 50 tabs Artists:  A B C D E F G H I J K L M N O P Q R S T U V W X Y Z 0-9

A Dead Language For A Dying Lady Guitar Tabs – Vanna

CD, Sheet music, Poster

Do you like A Dead Language For A Dying Lady? Share with your friends now
Tabs
-------------------------------------------------------------------------------
-------------------------------------------------------------------------------


Tuning: B-F#-B-E-G#-C#
	It's like all string tuned down 3 frets (1 1/2 steps) and the lowest
        string an extra two frets.

Intro		

Guitar 1
C#|-------------------------------|C#|---------------------------------------|  
G#|-------------------------5h6---|G#|---------------------------------------|
E |---------------------5h7-------|E |---------------------------------------|
B |-0-0~---------7-0-0~---------7-|B |-0-0~---------10~----------------------|
F#|-0-0~-7h8-7h8---0-0~-----------|F#|-0-0~-7h8-7h8----0h7h8-0h8h10-13p12p10-|
B |-0-0~-----------0-0~-----------|B |-0-0~----------------------------------|
    .              .                   .

C#|-----------------------------------|C#|-----------------------------------|  
G#|-----------------------------------|G#|-----------------------------------|
E |-----------------------------------|E |-7h9-7h9-10p9-10h12-10h12h13~------|
B |-----------------------------------|B |-----------------------------------|
F#|-12~-------------------------------|F#|-----------------------------------|
B |-----------------------------------|B |-----------------------------------|

Verse

C#|-----------------------------|C#|-----------------------------------------|  
G#|-----------------------------|G#|-----------------------------------------|
E |-----------------------------|E |-0-12-14-0-10-12-0-9-10-12-10-9-10-9-7---|
B |-3~-5~-----------------------|B |-----------------------------------------|
F#|-3~-5~-----------------------|F#|-----------------------------------------|
B |-3~-5~-----------------------|B |-----------------------------------------|

                                          
C#|-----------------------------|C#|-----------------------------------------|  
G#|-----------------------------|G#|-----------------------------------------|
E |-----------------------------|E |-0-9-10-0-10-12-0-12-14-0-10-12-10-9-7---|
B |-3~-5~-----------------------|B |-----------------------------------------|
F#|-3~-5~-----------------------|F#|-----------------------------------------|
B |-3~-5~-----------------------|B |-----------------------------------------|

Chorus

C#|-------------------------------------|C#|---------------------------------|  
G#|-------------------------------------|G#|---------------------------------|
E |-------5/7--7/9--9/10/12/14\12\10\9--|E |-9-9--9/10\9\7-------------------|
B |-3~-5~-x-x--x-x--x-x--x--x--x--x--x--|B |-x-x--x-x--x-x-------------------|
F#|-3~-5~-3/5--5/7--7/8-/10/12\10\8-\7--|F#|-7-7--7/8-\7\5-------------------|
B |-3~-5~-------------------------------|B |---------------------------------|

Verse

C#|-----------------------------|C#|-----------------------------------------|  
G#|-----------------------------|G#|-----------------------------------------|
E |-----------------------------|E |-0-12-14-0-10-12-0-9-10-12-10-9-10-9-7---|
B |-3~-5~-----------------------|B |-----------------------------------------|
F#|-3~-5~-----------------------|F#|-----------------------------------------|
B |-3~-5~-----------------------|B |-----------------------------------------|

                                          
C#|-----------------------------|C#|-----------------------------------------|  
G#|-----------------------------|G#|-----------------------------------------|
E |-----------------------------|E |-0-9-10-0-10-12-0-12-14-12-10-9-10-9-7---|
B |-3~-5~-----------------------|B |-----------------------------------------|
F#|-3~-5~-----------------------|F#|-----------------------------------------|
B |-3~-5~-----------------------|B |-----------------------------------------|

Chorus

C#|-------------------------------------|C#|---------------------------------|  
G#|-------------------------------------|G#|---------------------------------|
E |-------5/7--7/9--9/10/12/14\12\10\9--|E |-9-9--9/10\9\7-------------------|
B |-3~-5~-x-x--x-x--x-x--x--x--x--x--x--|B |-x-x--x-x--x-x-------------------|
F#|-3~-5~-3/5--5/7--7/8-/10/12\10\8-\7--|F#|-7-7--7/8-\7\5-------------------|
B |-3~-5~-------------------------------|B |---------------------------------|

C#|--------------------------------------------------------------------------|  
G#|--------------------------------------------------------------------------|
E |-----------------------7-7-7-7-----------------7-7-7-7--------------------|
B |-3~-5~-0-0-0-0-0-0-0-0-x-x-x-x-0-0-0-0-0-0-0-0-x-x-x-x--------------------|
F#|-3~-5~-0-0-0-0-0-0-0-0-5-5-5-5-0-0-0-0-0-0-0-0-5-5-5-5--------------------|
B |-3~-5~-0-0-0-0-0-0-0-0---------0-0-0-0-0-0-0-0----------------------------|
          . . . . . . . .         . . . . . . . .

                                           .
C#|--------------------------------------------------------------------------|  
G#|--------------------------------------------------------------------------|
E |-----------------------7-7-7-7-----------------7-7-7-7--------------------|
B |-3~-5~-0-0-0-0-0-0-0-0-x-x-x-x-0-0-0-0-0-0-0-0-x-x-x-x--------------------|
F#|-3~-5~-0-0-0-0-0-0-0-0-5-5-5-5-0-0-0-0-0-0-0-0-5-5-5-5--------------------|
B |-3~-5~-0-0-0-0-0-0-0-0---------0-0-0-0-0-0-0-0----------------------------|
          . . . . . . . .         . . . . . . . .

C#|--------------------------------------------------------------------------|  
G#|--------------------------------------------------------------------------|
E |-----------------7-7-9-10-----------------10-10-12-12---------------------|
B |-0-0-0-0-0-0-0-0-x-x-x-x--0-0-0-0-0-0-0-0-x--x--x--x----------------------|
F#|-0-0-0-0-0-0-0-0-5-5-7-8--0-0-0-0-0-0-0-0-8--8--10-10---------------------|
B |-0-0-0-0-0-0-0-0----------0-0-0-0-0-0-0-0---------------------------------|
    . . . . . . . .          . . . . . . . .

C#|--------------------------------------------------------------------------|  
G#|--------------------------------------------------------------------------|
E |-----------------------14-14-14-14------------------14-12-10-12-10--------|
B |-3~-5~-0-0-0-0-0-0-0-0-x--x--x--x---0-0-0-0-0-0-0-0-x--x--x--x--x---------|
F#|-3~-5~-0-0-0-0-0-0-0-0-12-12-12-12--0-0-0-0-0-0-0-0-12-10-8--10-8---------|
B |-3~-5~-0-0-0-0-0-0-0-0--------------0-0-0-0-0-0-0-0-----------------------|
          . . . . . . . .              . . . . . . . .

C#|-----------------------------------|C#|-----------------------------------|  
G#|-----------------------------------|G#|-----------------------------------|
E |-12-10-9-10-9-10-12-10-9-----------|E |-7~--------------------------------|
B |-x--x--x-x--x-x--x--x--x-----------|B |-x---------------------------------|
F#|-10-8--7-8--7-8--10-8--7-----------|F#|-5~--------------------------------|
B |-----------------------------------|B |-0~--------------------------------|

Breakdown

C#|-----------------------------------|C#|-----------------------------------|  
G#|-7~-7~-10~-9~-5~-7~----------------|G#|-7~-5~-5~-10~-10/12-12/14-12-10-9--|
E |-x--x--x---x--x--x-----------------|E |-x--x--x--x---x--x--x--x--x--x--x--|
B |-5--5--8---7--3--5-----------------|B |-5~-3~-3~-8~--8--10-10-12-10-8--7--|
F#|-----------------------------------|F#|-----------------------------------|
B |-----------------------------------|B |-----------------------------------|

C#|-----------------------------------|C#|-----------------------------------|  
G#|-9/10-7----------------------------|G#|-----------------------------------|
E |-x-x--x----------------------------|E |-----------------------------------|
B |-7-8--5----------------------------|B |-0-0-0-0--0-0--0--0-0-0-0--0-0-0-0-|
F#|-----------------------------------|F#|-0-0-0-0--0-0--0--0-0-0-0--0-0-0-0-|
B |-----------------------------------|B |-0-0-0-0--0-0--0--0-0-0-0--0-0-0-0-|
                                           . . . .  . .  .  . . . .  . . . . 

Outro

C#|--------------------------------------------------------------------------|
G#|--------------------------------------------------------------------------|
E |----------------12/14--------17--------15---------------------------------|
B |--0-0-0-0--0-0--x--x--0--0-0-x--0--0-0-x----------------------------------|
F#|--0-0-0-0--0-0--10/12-0--0-0-15-0--0-0-13---------------------------------|
B |--0-0-0-0--0-0--------0--0-0----0--0-0------------------------------------|
     . . . .  . .        .  . .    .  . .

C#|--------------------------------------------------------------------------|
G#|--------------------------------------------------------------------------|
E |----------------12/14\10--------17--------15------------------------------|
B |--0-0-0-0--0-0--x--x--x--0--0-0-x--0--0-0-x-------------------------------|
F#|--0-0-0-0--0-0--10/12\8--0--0-0-15-0--0-0-13------------------------------|
B |--0-0-0-0--0-0-----------0--0-0----0--0-0---------------------------------|
     . . . .  . .           .  . .    .  . .
   
C#|--------------------------------------------------------------------------|  
G#|--------------------------------------------------------------------------|
E |-0-0-17-0-17-19-0-19-22-0-19-21-0-17-19-17--------------------------------|
B |--------------------------------------------------------------------------|
F#|--------------------------------------------------------------------------|
B |--------------------------------------------------------------------------|


Tuning: B-F#-B-E-G#-C#
	It's like all string tuned down 3 frets (1 1/2 steps) and the lowest
        string an extra two frets.

Guitar 2

Intro


C#|-----------------------------------|C#|-----------------------------------|  
G#|-----------------------------------|G#|-----------------------------------|
E |---------------7~------------------|E |---------------7~------------------|
B |-0--0~-----7h8---------------------|B |-0--0~-----7h8---------------------|
F#|-0--0~-7h8-------------------------|F#|-0--0~-7h8-------------------------|
B |-0--0~-----------------------------|B |-0--0~-----------------------------|
    .                                      .
C#|-----------------------------------|C#|-----------------------------------|  
G#|-----------------------------------|G#|-----------------------------------|
E |---------------7~------------------|E |-----------------------------------|
B |-0--0~-----7h8---------------------|B |-0-0~-7-7-7-7-8-8-8-8-10-10-10-10-8|
F#|-0--0~-7h8-------------------------|F#|-0-0~------------------------------|
B |-0--0~-----------------------------|B |-0-0~------------------------------|
    .                                      .    . . . . . . . . .  .  .  .

C#|-----------------------------------|C#|-----------------------------------|  
G#|-6-6-6-----------------------------|G#|-6-6-6-----------------------------|
E |-------7-7-7-5-5-5-7-7-7-5-5-------|E |-------7-7-7-5-5-5-7-7-7-5-5-------|
B |-----------------------------8-8---|B |-----------------------------8-8---|
F#|-----------------------------------|F#|-----------------------------------|
B |-----------------------------------|B |-----------------------------------|
    . . . . . . . . . . . . . . . .        . . . . . . . . . . . . . . . .

Verse

C#|---------------------------------|C#|-------------------------------------|  
G#|---------------------------------|G#|-------------------------------------|
E |-10-10--5-5--7-7-9---------------|E |-------------------------------------|
B |-x--x---x-x--x-x-x---------------|B |-0-0--0-0--0-0-0-0-0-0--0-0--0-0-0-0-|
F#|-8--8---3-3--5-5-7---------------|F#|-0-0--0-0--0-0-0-0-0-0--0-0--0-0-0-0-|
B |---------------------------------|B |-0-0--0-0--0-0-0-0-0-0--0-0--0-0-0-0-|
                                         . .  . .  . . . . . .  . .  . . . .

C#|---------------------------------|C#|-------------------------------------|  
G#|---------------------------------|G#|-------------------------------------|
E |-10-10--17-17--15-15-14----------|E |-------------------------------------|
B |-x--x---x--x---x--x--x-----------|B |-0-0--0-0--0-0-0-0-0-0--0-0--0-0-0-0-|
F#|-8--8---15-15--13-13-12----------|F#|-0-0--0-0--0-0-0-0-0-0--0-0--0-0-0-0-|
B |---------------------------------|B |-0-0--0-0--0-0-0-0-0-0--0-0--0-0-0-0-|
                                         . .  . .  . . . . . .  . .  . . . .

C#|---------------------------------|C#|-------------------------------------|  
G#|---------------------------------|G#|-------------------------------------|
E |-10-10--5-5--7-7-9---------------|E |-------------------------------------|
B |-x--x---x-x--x-x-x---------------|B |-0-0--0-0--0-0-0-0-0-0--0-0--0-0-0-0-|
F#|-8--8---3-3--5-5-7---------------|F#|-0-0--0-0--0-0-0-0-0-0--0-0--0-0-0-0-|
B |---------------------------------|B |-0-0--0-0--0-0-0-0-0-0--0-0--0-0-0-0-|
                                         . .  . .  . . . . . .  . .  . . . .

C#|---------------------------------|C#|-------------------------------------|  
G#|---------------------------------|G#|-------------------------------------|
E |-10-10--17-17--15-15-14----------|E |-------------------------------------|
B |-x--x---x--x---x--x--x-----------|B |-0-0--0-0--0-0-0-0-0-0--0-0--0-0-0-0-|
F#|-8--8---15-15--13-13-12----------|F#|-0-0--0-0--0-0-0-0-0-0--0-0--0-0-0-0-|
B |---------------------------------|B |-0-0--0-0--0-0-0-0-0-0--0-0--0-0-0-0-|
                                         . .  . .  . . . . . .  . .  . . . .

Chorus

C#|-----------------------------------|C#|-----------------------------------|  
G#|-----------------------------------|G#|-----------------------------------|
E |--9--------------------------------|E |-7~--------------------------------|
B |--10-(strum)-----------------------|B |-x---------------------------------|
F#|--8--------------------------------|F#|-5~--------------------------------|
B |-----------------------------------|B |-----------------------------------|

Verse

C#|---------0-----------------------|C#|-------------------------------------|  
G#|-----6-----6---6-----------------|G#|-------------------------------------|
E |-7-7---7-----7-------------------|E |-------------------------------------|
B |---------------------------------|B |-0-0--0-0--0-0-0-0-0-0--0-0--0-0-0-0-|
F#|---------------------------------|F#|-0-0--0-0--0-0-0-0-0-0--0-0--0-0-0-0-|
B |---------------------------------|B |-0-0--0-0--0-0-0-0-0-0--0-0--0-0-0-0-|
    . . . . . . . .                      . .  . .  . . . . . .  . .  . . . .

Chorus

C#|-----------------------------------|C#|-----------------------------------|  
G#|-----------------------------------|G#|-----------------------------------|
E |--9--------------------------------|E |-7~--------------------------------|
B |--10-(strum)-----------------------|B |-x---------------------------------|
F#|--8--------------------------------|F#|-5~--------------------------------|
B |-----------------------------------|B |-----------------------------------|

C#|--------------------------------------------------------------------------|  
G#|--------------------------------------------------------------------------|
E |-----------------------7-7-7-7-----------------7-7-7-7--------------------|
B |-3~-5~-0-0-0-0-0-0-0-0-x-x-x-x-0-0-0-0-0-0-0-0-x-x-x-x--------------------|
F#|-3~-5~-0-0-0-0-0-0-0-0-5-5-5-5-0-0-0-0-0-0-0-0-5-5-5-5--------------------|
B |-3~-5~-0-0-0-0-0-0-0-0---------0-0-0-0-0-0-0-0----------------------------|
          . . . . . . . .         . . . . . . . .

Breakdown


C#|-----------------------------------|C#|-0~-----0~-----0~-----0~-----------|  
G#|-----------------------------------|G#|---6~-----6~-----6~-----6~---------|
E |-7~--------------------------------|E |-----7~-----7~-----5~-----7~-------|
B |-7~--------------------------------|B |-----------------------------------|
F#|-5~--------------------------------|F#|-----------------------------------|
B |-----------------------------------|B |-----------------------------------|

C#|--------------------------------------------------------------------------|
G#|--------------------------------------------------------------------------|
E |--------------------------------------------------------------------------|
B |--0-0-0-0--0-0-0~--0--0-0-3~--0--0-0-5~-----------------------------------|
F#|--0-0-0-0--0-0-0~--0--0-0-3~--0--0-0-5~-----------------------------------|
B |--0-0-0-0--0-0-0~--0--0-0-3~--0--0-0-5~-----------------------------------|
     . . . .  . .     .  . .     .  . .

C#|--------------------------------------------------------------------------|  
G#|--------------------------------------------------------------------------|
E |--------------------------------------------------------------------------|
B |-0-0-0-0--0-0--0--0-0-0-0--0-0-0-0------0-0-0-0--0-3~-0-0-0-0--0-5~-------|
F#|-0-0-0-0--0-0--0--0-0-0-0--0-0-0-0------0-0-0-0--0-3~-0-0-0-0--0-5~-------|
B |-0-0-0-0--0-0--0--0-0-0-0--0-0-0-0------0-0-0-0--0-3~-0-0-0-0--0-5~-------|
    . . . .  . .  .  . . . .  . . . .      . . . .  .    . . . .  .  





Comments


Popular Vanna tabs & chords
Safe To Say Bass Tabs
A Dead Language For A Dying Lady Intro Tabs
Country Boys Goddamn Intro Tabs
Shes A Real Battle Axe By Grayson Connelly Intro Tabs
That Champagne Feeling Tabs
The Alarm Intro Tabs
The Same Graceful Wind Tabs
We Ate The Horse You Rode In On Tabs
We Ate The Horse You Rode In On 1 Tabs
When In Roam Tabs


Song lyrics



↑ Back to top | Tablatures and chords are parodies/interpretations of the original songs. You may use it for private study, scholarship, research or language learning purposes only
© 2014 AZChords.com Contact us | Privacy policy | DMCA | Add/correct tabs | Request tabs | Top 50 tabs