» » »

Van Morrison, Full Force Gale Bass tabs (ver.1)

Artists:  A B C D E F G H I J K L M N O P Q R S T U V W X Y Z # 

Full Force Gale Bass tabs (ver.1)

Van Morrison Tabs
Rating:
0/5 (0 votes)
Full Force Gale lessons Tabs too difficult? Try these video lessons and learn fast
                Van Morrison
Bass Tab
Original Bassist: David Hayes

Tempo=130BPM, 4/4

Intro

|---------|---------|---------|-------------|
|---------|---------|---------|-------------|
|---------|---------|---------|------0-2/4--|
|---------|---------|---------|-------------|

Chorus

|-------------|--------------|-------------|---------------|
|-------7---7-|-5---5----5-7-|-------7---7-|-5-----5---5-7-|
|-5---5-------|--------7-----|-5---5-------|-----5---5-----|
|-------------|--------------|-------------|---------------|

|-------------|-------------|--------------|--------------|
|-------7---7-|-5---5-7---7-|----------4-5-|-7---7--5-4---|
|-5---5-------|-------------|-5---5--5-----|------------7-|
|-------------|-------------|--------------|--------------|

|------------|--------------|-------------|--------------|
|------7---7-|-5---5----5-7-|-------7---7-|-5---5----5-7-|
|-5----------|--------7-----|-5---5-------|--------7-----|
|------------|--------------|-------------|--------------|

|-------------|-------------|--------------|---------------|
|-------7---7-|-5---5-7---7-|----------4-5-|-7---7-7-5-4---|
|-5---5-------|-------------|-5---5--5-----|-------------7-|
|-------------|-------------|--------------|---------------|

|-------------|--------------|-------------|--------------|
|-------7--7--|-5---5----5-7-|-------7---7-|-5---5----5-7-|
|-5---5-------|--------7-----|-5---5-------|--------7-----|
|-------------|--------------|-------------|--------------|

|-------------|-------------|--------------|--------------|
|-------7---7-|-5---5-7---7-|----------4-5-|-7---7-7-4-7--|
|-5---5-------|-------------|-5---5--5-----|--------------|
|-------------|-------------|--------------|--------------|

Break

|-4---4-----2---|-4---4-----4-2-|----4-4-5-5-7-7-|-----6-6-7-7-9-7-|
|-------4-4---4-|-------4-4-----|-5--------------|-7-7-------------|
|---------------|---------------|----------------|-----------------|
|---------------|---------------|----------------|-----------------|

|-4--4-4-----2---|-4--4-4---------|----4-4-5-5-7---|----------------|
|--------4-4---4-|--------4-4-9-7-|-5------------5-|-7-7-7-7-7-5-2--|
|----------------|----------------|----------------|----------------|
|----------------|----------------|----------------|----------------|

Chorus

|-------------|--------------|-------------|--------------|
|-------7---7-|-5---5----5-7-|-------7---7-|-5---5----5-7-|
|-5---5-------|--------7-----|-5---5-------|--------7-----|
|-------------|--------------|-------------|--------------|

|-------------|-------------|--------------|----------------|
|-------7---7-|-5---5-7---7-|----------4-5-|-7-7-5-5-4-4----|
|-5---5-------|-------------|-5---5--5-----|-------------7--|
|-------------|-------------|--------------|----------------|

Solo

|-------------|--------------|-------------|--------------|
|-------7---7-|-5---5----5-7-|-------7---7-|-5---5----5-7-|
|-5---5-------|--------7-----|-5---5-------|--------7-----|
|-------------|--------------|-------------|--------------|

|-------------|-------------|--------------|-------------|
|-------7---7-|-5---5-7---7-|----------4-5-|-7----7-5----|
|-5---5-------|-------------|-5---5--5-----|----------7--|
|-------------|-------------|--------------|-------------|

|-------------|--------------|-------------|--------------|
|-------7---7-|-5---5----5-7-|-------7---7-|-5---5----5-7-|
|-5---5-------|--------7-----|-5---5-------|--------7-----|
|-------------|--------------|-------------|--------------|

|-------------|-------------|--------------|-----------------|
|-------7---7-|-5---5-7---7-|----------4-5-|-7-7-7-7-7---7-8-|
|-5---5-------|-------------|-5---5--5-----|-----------9-----|
|-------------|-------------|--------------|-----------------|

Break

|---------------|---------------|-----4-4-5-5-7---|-----6-6-7-7-9---|
|-9---9-----7---|-9---9-----9-7-|-5-5-----------5-|-7-7-----------7-|
|-------9-9---9-|-------9-9-----|-----------------|-----------------|
|---------------|---------------|-----------------|-----------------|

|---------------|---------------|-----4-4-5-5-7---|-----------------|
|-9---9-----7---|-9---9-----9-7-|-5-5-----------5-|-7-7-7-7-7-5-4---|
|-------9-9---9-|-------9-9-----|-----------------|---------------7-|
|---------------|---------------|-----------------|-----------------|

Chorus

|-------------|--------------|-------------|--------------|
|-------7---7-|-5---5----5-7-|-------7---7-|-5---5----5-7-|
|-5---5-------|--------7-----|-5---5-------|--------7-----|
|-------------|--------------|-------------|--------------|

|-------------|-------------|--------------|---------------|
|-------7---7-|-5---5-7---7-|----------4-5-|-7---7-7-5-4---|
|-5---5-------|-------------|-5---5--5-----|-------------7-|
|-------------|-------------|--------------|---------------|

|-------------|--------------|-------------|--------------|
|-------7---7-|-5---5----5-7-|-------7---7-|-5---5----5-7-|
|-5---5-------|--------7-----|-5---5-------|--------7-----|
|-------------|--------------|-------------|--------------|

|-------------|-------------|--------------|-----------------|
|-------7---7-|-5---5-7---7-|----------4-5-|-7-7-5-5-4-4-2-2-|
|-5---5-------|-------------|-5---5--5-----|-----------------|
|-------------|-------------|--------------|-----------------|

|-------------|--------------|-------------|---------------|
|-------7---7-|-5---5----5-7-|-------7---7-|-5---5-5---5-7-|
|-5---5-------|--------7-----|-5---5-------|---------7-----|
|-------------|--------------|-------------|---------------|

|-------------|-------------|--------------|-----------------|
|-------7---7-|-5---5-7---7-|----------4-5-|-7-7-5-5-4-4-----|
|-5---5-------|-------------|-5---5--5-----|-------------7-7-|
|-------------|-------------|--------------|-----------------|

|-------------|--------------|-------------|--------------|
|-------7---7-|-5---5----5-7-|-------7---7-|-5---5----5-7-|
|-5---5-------|--------7-----|-5---5-------|--------7-----|
|-------------|--------------|-------------|--------------|

|-------------|-------------|--------------|-----------------|
|-------7---7-|-5---5-7---7-|----------4-5-|-7-7-5-5-4-4-----|
|-5---5-------|-------------|-5---5--5-----|-------------7-7-|
|-------------|-------------|--------------|-----------------|

|-------------|--------------|-------------|---------------|
|-------7---7-|-5---5----5-7-|-------7---7-|-5---5-5---5-7-|
|-5---5-------|--------7-----|-5---5-------|---------7-----|
|-------------|--------------|-------------|---------------|

|-*-----------|-------------|-------7---7---|-7---7/-11~--| *Slow down
|-------7--7--|-5--5--7--7--|---------------|-------------|
|-5--5--------|-------------|-5---5---5---5-|---5---------|
|-------------|-------------|---------------|-------------|

|-11-11~------|-----*|
|-------------|-----*|
|-------------|-----*|
|-------------|-----*|
            

comments powered by Disqus
↑ Back to top | Van Morrison Bass for Full Force Gale. Lyrics for acoustic guitar and electric guitar. Tablatures and chords are parodies/interpretations of the original songs. You may use it for private study, scholarship, research or language learning purposes only