» » »

Van Morrison, Crazy Love Bass tabs (ver.1)

Artists:  A B C D E F G H I J K L M N O P Q R S T U V W X Y Z # 

Crazy Love Bass tabs (ver.1)

Van Morrison Tabs
Rating:
4/5 (1 vote)
Crazy Love lessons Tabs too difficult? Try these video lessons and learn fast
                Van Morrison
Bass Tab
Bassist: John Klingberg

156BPM, 4/4

Verse

|-----------|-----------|-------------|---------|
|-----------|-----------|-------------|---------|
|-----------|-4------4--|-5--4--------|---------|
|-5------5--|-----------|-------7--5--|-------x-|

|-----------|-----------|-------------|---------|
|-----------|-----------|-------------|---------|
|-----------|-4-------4-|-5--4--7-----|---------|
|-5------5--|-----------|----------5--|-------x-|

|-----------|-----------|-------------|-----------|
|-----------|-----------|-------------|-----------|
|-----------|-4-------4-|-5--4--7-----|------7--x-|
|-5------5--|-----------|----------5--|-----------|

|-----------|-----------|-------------|---------|
|-----------|-----------|-------------|---------|
|-----------|-4------4--|-5--4--------|---------|
|-5------5--|-----------|-------7--5--|---------|

Chorus

|-----------|-----------|------------|---------|
|-7----6----|-4---------|------------|---------|
|-----------|------7----|-5----5--7--|---------|
|-----------|-----------|------------|---------|

|-----------|-----------|-------------|---------|
|-7----6----|-4---------|-------------|---------|
|-----------|------7----|-5--4--------|---------|
|-----------|-----------|-------7--5--|---------|

Verse

|-----------|-----------|-------------|---------|
|-----------|-----------|-------------|---------|
|-----------|-4------4--|-5--4--7-----|---------|
|-5------5--|-----------|----------5--|-------x-|

|-----------|-----------|-------------|----------|
|-----------|-----------|-------------|-------6--|
|-----------|-4------4--|-5--4--------|----------|
|-5------5--|-----------|-------7--5--|----------|

|-----------|-----------|-------------|----------|
|-7------7--|-----------|-------------|----------|
|-----------|-4------4--|-5--4--------|----------|
|-----------|-----------|-------7--5--|-------4--|

|-----------|-----------|-------------|---------|
|-----------|-----------|-------------|---------|
|-----------|-4------4--|-5--4--------|---------|
|-5------5--|-----------|-------7--5--|---------|

Chorus

|-----------|-----------|------------|---------|
|-7----6----|-4---------|------------|---------|
|-----------|------7----|-5----5--7--|---------|
|-----------|-----------|------------|---------|

|-----------|-----------|-------------|-----------|
|-7----6----|-4---------|-------------|-----------|
|-----------|------7----|-5--4--------|-------4-5-|
|-----------|-----------|-------7--5--|-----------|

Bridge

|------------|----7--------|------------|------------|
|------------|--------4--6-|-7----------|------------|
|-7-----7--4-|-5-----------|-------9--7-|-------4--5-|
|------------|-------------|------------|-5----------|

|------------|------------|------------|------------|
|-------9--x-|-------4--6-|-7----------|------------|
|-7----------|-5----------|-------9--7-|-------4--5-|
|------------|------------|------------|-5----------|

|------------|------------|------------|------------|
|------------|-------4--6-|-7-----7--x-|------------|
|-7-----4--7-|-5----------|------------|-9-----9--x-|
|------------|------------|------------|------------|

|------------|------------|------------|---------|
|------------|-------6--9-|-7----------|---------|
|----------9-|-7----------|--------7~--|---------|
|-7-----9----|------------|------------|---------|

Verse

|-----------|-----------|-------------|---------|
|-----------|-----------|-------------|---------|
|-----------|-4------4--|-5--4--------|---------|
|-5------5--|-----------|-------7--5--|-------x-|

|-----------|-----------|-------------|---------|
|-----------|-----------|-------------|---------|
|-----------|-4------4--|-5--4--------|---------|
|-5------5--|-----------|-------0--5--|-------x-|

|-----------|-----------|-------------|---------|
|-----------|-----------|-------------|---------|
|-----------|-4-------x-|-5--4--7-----|---------|
|-5------5--|-----------|----------5--|-------x-|

|-----------|-----------|-------------|---------|
|-----------|-----------|-------------|---------|
|-----------|-4------4--|-5--4--7-----|---------|
|-5------5--|-----------|----------5--|---------|

Chorus/Ending

|-----------|-----------|------------|---------|
|-7----6----|-4---------|------------|---------|
|-----------|------7----|-5----5--7--|---------|
|-----------|-----------|------------|---------|

|-----------|-----------|-------------|---------|
|-7----6----|-4---------|-------------|---------|
|-----------|------7----|-5--4--------|---------|
|-----------|-----------|-------7--5--|---------|

|-----------|-----------|------------|---------|
|-7---------|-4---------|------------|---------|
|------4----|------7----|-5----5--7--|---------|
|-----------|-----------|------------|---------|

|-----------|-----------|----------|----------|
|-7---------|-4---------|----------|----------|
|------4----|------7----|-5--------|----------|
|-----------|-----------|----------|-5--------|
            

comments powered by Disqus
↑ Back to top | Van Morrison Bass for Crazy Love. Lyrics for acoustic guitar and electric guitar. Tablatures and chords are parodies/interpretations of the original songs. You may use it for private study, scholarship, research or language learning purposes only