» » »

Van Morrison, Brown Eyed Girl Bass tabs (ver.5)

Artists:  A B C D E F G H I J K L M N O P Q R S T U V W X Y Z # 

Brown Eyed Girl Bass tabs (ver.5)

Van Morrison Tabs
 Rating:
3.8/5 (5 votes)
Brown Eyed Girl lessons Tabs too difficult? Try these video lessons and learn fast
1
                The real song is a lot more complicated after the first chorus, but this will get 
you started. I've always loved this song, especially since I got my bass. After 
playing my old tab sheet for a while, I noticed a few minor errors. This updated March 10, 2011.


[INTRO]

G:---|--------|--------|0-------|--------|--------|--------|0-------|--------|
D:---|--------|----2-4-|--------|0-------|--------|----2-4-|--------|0-------|
A:---|------2-|3--3----|-----24-|--------|------2-|3--3----|-----24-|--------|
E:02-|3--3-3--|--------|--------|---0-0-2|3----3--|--------|--------|---0-0-2|

[VERSE]
  G               C       G               D
    Hey where did we go?    Days when the rains came
  G           C        G           D
    Down in a hollow     Playing a new game
  G                C                   G                 D
    Laughin' and a runnin', hey, hey,     Skippin' and a jumpin'
  G              C                  G        D
    In the misty morning fog with     our    hearts a thumpin' and 

  G        C        G        D        G        C        G        D
G:--------|--------|0-------|--------|--------|--------|0-------|--------|
D:--------|----2-4-|--------|0-------|--------|----2-4-|--------|0-------|
A:------2-|3--3----|-----24-|--------|------2-|3--3----|-----24-|--------|
E:3--3-3--|--------|--------|---0-0-2|3----3--|--------|--------|---0-0-2|

  G        C        G        D        G        C        G        D
G:--------|--------|0-------|--------|--------|--------|0-------|--------|
D:--------|----2-4-|--------|0-------|--------|----2-4-|--------|0--0----|
A:------2-|3--3----|-----24-|--------|------2-|3--3----|-----24-|-----02-|
E:3--3-3--|--------|--------|---0-0-2|3----3--|--------|--------|--------|

[BRIDGE]
  C     D                  G     Em   C             D               G     D7
  You        My brown-eyed girl         You're my        brown eyed girl

  C        D        G        Em       C        D        G        D7
G:--------|--------|0-------|--------|--------|--------|--------|--------|
D:--------|0--0--4-|-------0|2--2----|--------|0--0-240|--------|0-0-2-4-|
A:3--3-03-|--------|-----2--|-----02-|3--3-03-|--------|---0-23-|---0-2-4|
E:--------|--------|---3----|--------|--------|--------|3-------|--------|

[VERSE]
  G              C            G              D
    Now whatever happened?      Tuesday it's so slow
  G                C                   G             D
    Goin' down the old mine with a        Transistor radio
  G                 C                    G                  D
    Standin' in the sunlight laughin'       Hidin' behind a rainbow's wall
  G              C           G              D
    Slippin' and slidin'       along    the waterfall with 

  G        C        G        D        G        C        G        D
G:--------|--------|0-------|--------|--------|--------|0-------|--------|
D:--------|----2-4-|--------|0-------|--------|----2-4-|--------|0-------|
A:------2-|3--3----|-----24-|--------|------2-|3--3----|-----24-|--------|
E:3--3-3--|--------|--------|---0-0-2|3----3--|--------|--------|---0-0-2|

  G        C        G        D        G        C        G        D
G:--------|--------|0-------|--------|--------|--------|0-------|--------|
D:--------|----2-4-|--------|0-------|--------|----2-4-|--------|0--0----|
A:------2-|3--3----|-----24-|--------|------2-|3--3----|-----24-|-----02-|
E:3--3-3--|--------|--------|---0-0-2|3----3--|--------|--------|--------|

[BRIDGE]
  C     D                  G     Em   C             D               G   
  You        My brown-eyed girl         You're my        brown-eyed girl

  C        D        G        Em       C        D        G        
G:--------|--------|-------0|--------|--------|--------|--------|
D:--------|0-00----|-----0--|2---2---|---2----|0-------|--------|
A:3--3-03-|--------|---2----|---2-02-|3----03-|--------|---0-23-|
E:--------|------2-|3-------|--------|--------|---0-2-0|3-------|

  D7
    Do you remember when     We used to sing

  D7       D7       D7    
G:--------|--------|--------|
D:0--00--0|0--00--0|0--00-0-|
A:--------|--------|-----2-2|
E:--------|--------|--------|

[CHORUS]
  G          C           G              D      
   Sha la la la la la la la la la la ti da   (Just like that)
  G          C           G              D      La ti
   Sha la la la la la la la la la la ti da    

  G        C        G        D        G        C        G        D
G:--------|--------|0-------|--------|--------|--------|0-------|--------|
D:--------|----2-4-|--------|0-------|--------|----2-4-|--------|0--2-2-4|
A:------2-|3--3----|---2-24-|--------|------2-|3--3----|---2-24-|--------|
E:3--3-3--|--------|--------|---0-0-2|3----3--|--------|--------|--------|

  G
  Da

  G        G         
G:0--00--0|0--00--0|0--00--0|0--00---|--------|--------|0-------|--------|
D:--------|--------|--------|-----202|--------|----2-4-|--------|0--00240|
A:--------|--------|--------|--------|------2-|3--3----|---2-24-|--------|
E:--------|--------|--------|--------|3--3-3--|--------|--------|--------|

[VERSE]
  G            C              G                   D
    So hard to find my way       Now that I'm all on my own
  G                    C            G             D
    I saw you just the other day      My      How you have grown
  G                C                  G                D
    Cast my memory back there, Lord      Sometimes I'm overcome thinkin' 'bout
  G                    C             G               D
    Makin' love in the green grass     Behind    The stadium with

  G        C        G        D        G        C        G        D
G:--------|--------|0-------|--------|--------|--------|0-------|--------|
D:--------|----2-4-|--------|0-------|--------|----2-4-|--------|0-------|
A:------2-|3--3----|-----24-|--------|------2-|3--3----|-----24-|--------|
E:3--3-3--|--------|--------|---0-0-2|3----3--|--------|--------|---0-0-2|

  G        C        G        D        G        C        G        D
G:--------|--------|0-------|--------|--------|--------|0-------|--------|
D:--------|----2-4-|--------|0-------|--------|----2-4-|--------|0--0----|
A:------2-|3--3----|-----24-|--------|------2-|3--3----|-----24-|-----02-|
E:3--3-3--|--------|--------|---0-0-2|3----3--|--------|--------|--------|

[BRIDGE]
  C     D                  G     Em   C             D               G   
  You        My brown-eyed girl         You're my        brown-eyed girl

  C        D        G        Em       C        D        G        
G:--------|--------|-------0|--------|--------|--------|--------|
D:--------|0-00----|-----0--|2---2---|--------|0-------|--------|
A:3--3-03-|--------|---2----|---2-02-|3----03-|--------|---0-23-|
E:--------|------2-|3-------|--------|---0----|---0-2-0|3-------|

  D7
    Do you remember when     We used to sing

  D7       D7       D7    
G:--------|--------|--------|
D:0--00--0|0--00--0|0--00-0-|
A:--------|--------|-----2-2|
E:--------|--------|--------|

[CHORUS] (Repeat and fade)
  G          C           G              D      
   Sha la la la la la la la la la la ti da   
  G          C           G              D    
   Sha la la la la la la la la la la ti da    

  G        C        G        D        G        C        G        D
G:--------|--------|0-------|--------|--------|--------|0-------|--------|
D:--------|----2-4-|--------|0-------|--------|----2-4-|--------|0-------|
A:------2-|3--3----|---2-24-|--------|------2-|3--3----|---2-24-|--------|
E:3--3-3--|--------|--------|---0-0-2|3----3--|--------|--------|---0-0-2|
            
Submit corrections

comments powered by Disqus
↑ Back to top | Van Morrison Bass for Brown Eyed Girl. Lyrics for acoustic guitar and electric guitar. 1 Tablatures and chords are parodies/interpretations of the original songs. You may use it for private study, scholarship, research or language learning purposes only