» » »

Brown Eyed Girl Bass tabs (ver.4)

Artists:  A B C D E F G H I J K L M N O P Q R S T U V W X Y Z # 

Brown Eyed Girl Bass tabs (ver.4)

Van Morrison
Rating:
5/5 (3 votes)

Hard to play? Try these video lessons and learn fast.
                -------------------------------------------------------------------------------
-------------------------------------------------------------------------------
*This is how I learned it in my guitar class. This is my first tab, hope
you like it. I am 99.9% sure I tabbed it right. *NOTE: This is the way I
learned it. It looks a little hard, but it isn't, it mostly repeats over
and over. You don't HAVE to use the solo, you can always make your own.
Thank you!


Tuning: Standard

      Intro (come in right when song starts)
G|----------------------|------------------------------|
D|----------------------|-----------2-5-----------4-7--|
A|-------3~--------5~---|----2-5--3--------2-5--5------|
E|--3~--------3~--------|--3-------------3-------------|

G|------------------------------|(x4)
D|-----------2-5-----------4-7--|
A|----2-5--3--------2-5--5------|
E|--3-------------3-------------|

G|----------------------------------------------------------|
D|----2-5----4-7--------------------2-5----4-7-----------4-7|
A|--3------5------------------0-2-3------5--------2-5--5----|
E|----------------3-5-3-2-0~--------------------3-----------|

G|------------------------------|(x4)
D|-----------2-5-----------4-7--|
A|----2-5--3--------2-5--5------|
E|--3-------------3-------------|
                                                    
G|--------------------------------------------------------------------------|
D|----2-5----4-7--------------------2-5----4-7------------------------------|
A|--3------5------------------0-2-3------5--------2-5--5--555555555555555\1-|
E|----------------3-5-3-2-0~--------------------3---------------------------|

"sha la la la la la la la la la ti da"
G|------------------------------|(x2)
D|-----------2-5-----------4-7--|
A|----2-5--3--------2-5--5------|
E|--3-------------3-------------|

Bass Solo
G|--------------------------------------------------------|(x2)
D|---------------------------55-2-------------------------|
A|-----------------22-5--3-3-----------22-33-55-33-22--00-|
E|--3-33-3-33--3-3-----------------3-3--------------------|

G|------------------------------|(x4)
D|-----------2-5-----------4-7--|
A|----2-5--3--------2-5--5------|
E|--3-------------3-------------|
                                                    
G|--------------------------------------------------------------------------|
D|----2-5----4-7--------------------2-5----4-7------------------------------|
A|--3------5------------------0-2-3------5--------2-5--5--555555555555555\1-|
E|----------------3-5-3-2-0~--------------------3---------------------------|

"sha la la la la la la la la la ti da"
G|------------------------------|(x2)
D|-----------2-5-----------4-7--|
A|----2-5--3--------2-5--5------|
E|--3-------------3-------------|

Outro
G|--------------------------------------------------|
D|-----------2-5-----------4-7----------------------|
A|----2-5--3--------2-5--5----------3~------5~------|
E|--3-------------3-------------3~------3~-------3~-|
                                                    

| /  slide up
| \  slide down
| h  hammer-on
| p  pull-off
| ~  vibrato
| +  harmonic
| x  Mute note
===============================================================================
            
Hard to play? Try these video lessons and learn fast. | Correct




comments powered by Disqus
↑ Back to top | Tablatures and chords are parodies/interpretations of the original songs. You may use it for private study, scholarship, research or language learning purposes only