» » »

Vanilla Sky, Umbrella Tabs (ver.7)

Artists:  A B C D E F G H I J K L M N O P Q R S T U V W X Y Z # 

Umbrella Tabs (ver.7)

Vanilla Sky Tabs
 Rating:
4/5 (4 votes)
Umbrella lessons Tabs too difficult? Try these video lessons and learn fast
1
                Okay, you may think that this tab isn't the real one but you can be shure that it is. I 
to learn the song by using the other Umbrella tabs posted here and noticed, that 
was wrong:
The Chorus!
It's played totally different then everyone says.
I'm almost sure that this tab is absolutely right, the only thing missing is the solo 
2ns guitar does several times.
So, please listen to the song several times before you say, that my tab is wrong.
If there are any mistakes pls tell me.
Enjoy :)


  1st Guitar


  Intro

e |----------------------------------|
h |----------------------------------|
G |-------------------8~-------------| (2x)
D |----2~------4~-----8~------6~-----|
A |----2~------4~-----6~------6~-----|
E |----0~------2~-------------4~-----|


  (Because...)
  Chorus

e |-------------------------------------------------------------------|
h |-------------------------------------------------------------------|
G |----4444-4444-44----6666-6666-66-----------------------------------| (2x)
D |----xxxx-xxxx-xx----xxxx-xxxx-xx--8888-99-88---6666-6666-66--------|
A |----2222-2222-22----4444-4444-44--xxxx-xx-xx---xxxx-xxxx-xx--------|
E |----------------------------------6666-77-66---4444-4444-44--------|
                                     *************************


   Pre-Verse

  (Ella, ella, eh....)
e |---------------------------------------|
h |---------------------------------------|
G |----------------------88---------------| (2x)
D |----22-----44-44------88------66-66----|
A |----22-----44-44------66------66-66----|
E |----00-----22-22--------------44-44----|

   Verse

e |------------------------------------------------------------------------|
h |------------------------------------------------------------------------|
G |-------------------------------------8888888888888888-------------------| (2x)
D |---2222222222222222-4444444444444444-8888888888888888-66666666-88888888-|
A |---2222222222222222-4444444444444444-6666666666666666-66666666-88888888-|
E |---0000000000000000-2222222222222222------------------44444444-66666666-|

  (Because...)
  Chorus

e |-------------------------------------------------------------------|
h |-------------------------------------------------------------------|
G |----4444-4444-44----6666-6666-66-----------------------------------| (2x)
D |----xxxx-xxxx-xx----xxxx-xxxx-xx--8888-99-88---6666-6666-66--------|
A |----2222-2222-22----4444-4444-44--xxxx-xx-xx---xxxx-xxxx-xx--------|
E |----------------------------------6666-77-66---4444-4444-44--------|

  (Ella, ella, eh,....)
e |------------------------------------------------|
h |------------------------------------------------|
G |-------------------------8888-8888--------------| (2x)
D |-2222-2222---4444-4444---8888-8888---6666-6666--|
A |-2222-2222---4444-4444---6666-6666---6666-6666--|
E |-0000-0000---2222-2222---------------4444-4444--|

  Bridge

  (You can run into my arms...)
e |-----|
h |-----|
G |-----|
D |-7~--|
A |-7~--|
E |-5~--|

  (Our love....)
e |-------------------------------------|
h |-------------------------------------|
G |--------------------------------8~~~-|
D |--------------------------------8~~~-|
A |--------------------------------6~~~-|
E |--------2-4-5~--------7-0~----2------|


  BECAUSE...!!!!
  Chorus

e |-------------------------------------------------------------------|
h |-------------------------------------------------------------------|
G |----4444-4444-44----6666-6666-66-----------------------------------| (2x)
D |----xxxx-xxxx-xx----xxxx-xxxx-xx--8888-99-88---6666-6666-66--------|
A |----2222-2222-22----4444-4444-44--xxxx-xx-xx---xxxx-xxxx-xx--------|
E |----------------------------------6666-77-66---4444-4444-44--------|


  ( You can stand under my Umbrella...)
e |----------------------------------|
h |----------------------------------|
G |----------------------------------|
D |----------------------------------|
A |----------------------------------|
E |-7-9-11-12--11/12/11--------------|


  (Ella, ella, eh,....)
e |------------------------------------------------|
h |------------------------------------------------|
G |-------------4444-4444--------------------------|
D |-2222-2222---4444-4444---4444-99-88--6666-88-99-|
A |-2222-2222---2222-2222---4444-99-88--6666-88-99-|
E |-0000-0000---------------2222-77-66--4444-66-77-|


e |------------------------------------------------|
h |------------------------------------------------|
G |-9999-9999--------------------------------------|
D |-9999-9999---9999-------4444-99-88--6666-8866---|
A |-7777-7777---9999-------4444-99-88--6666-8866---|
E |-------------7777--7-6--2222-77-66--4444-6666---|


  Outro

e |----------------------------------|
h |----------------------------------|
G |-------------------8~-------------| (2x)
D |----2~------4~-----8~------6~-----|
A |----2~------4~-----6~------6~-----|
E |----0~------2~-------------4~-----|


That was the 1st Guitar now comes the....


     2nd Guitar

   Intro (You don't have to play this)

e |--------------14---14----14----14----14-|
h |----16-16-16----16----16----16----16----|
G |----------------------------------------|
D |----------------------------------------|
A |----------------------------------------|
E |----------------------------------------|


  Chorus

e |-14-14-14-14-14-14-14-14-14-14-14-14-14-|   (And so on...)
h |----------------------------------------|
G |----------------------------------------|
D |----------------------------------------|
A |----------------------------------------|
E |----------------------------------------|


  Pre-Verse

  (The third time he sings Ella)
e |------------------------------------------------------------------------------|
h |------------------------------------------------------------------------------|
G |------------------------------------------------------------------------------|
D |--16-16-16-16-16-16-16-16--16-16-16-16-16-16-16-16--15-15-15-15-16-16-16-16---|
A |--x--x--x--x--x--x--x--x---x--x--x--x--x--x--x--x---x--x--x--x--x--x--x--x----|
E |--14-14-14-14-14-14-14-14--14-14-14-14-14-14-14-14--13-13-13-13-14-14-14-14---|

  Verse

  (...war has took...)
e |---------------14-------12-------14-------12-------14------12-------14-------12---------|
h |-------------12--12---12--12---12--12---12--12---12--12--12--12---12--12---12--12-------|
G |----------------------------------------------------------------13-------13-------------|
D |-----------14-------14-------16-------16-------13-------13------------------------------|
A |----------------------------------------------------------------------------------------|
E |----------------------------------------------------------------------------------------|


  Chorus

e |-14-14-14-14-14-14-14-14-14-14-14-14-14-|   (And so on...)
h |----------------------------------------|
G |----------------------------------------|
D |----------------------------------------|
A |----------------------------------------|
E |----------------------------------------|

 Solo (Didn't find out yet)


   Chorus

e |-14-14-14-14-14-14-14-14-14-14-14-14-14-|   (And so on...)
h |----------------------------------------|
G |----------------------------------------|
D |----------------------------------------|
A |----------------------------------------|
E |----------------------------------------|

 Solo

  Outro

e |---------------14-------12-------14-------12-------14------12-------14-------12---------|
h |-------------12--12---12--12---12--12---12--12---12--12--12--12---12--12---12--12-------|
G |----------------------------------------------------------------13-------13-------------| (4x)
D |-----------14-------14-------16-------16-------13-------13------------------------------|
A |----------------------------------------------------------------------------------------|
E |----------------------------------------------------------------------------------------|


____________________________________________________________________________

***********= Can also be played by 2nd Guitar as

e |-------------------------------------------------------|
h |-------------------------------------------------------|
G |---15-15-15-15--16-16-15-15--13-13-13-13-13-13-13-13---|
D |---x--x--x--x---x--x--x--x---x--x--x--x--x--x--x--x----|
A |---13-13-13-13--14-14-13-13--11-11-11-11-11-11-11-11---|
E |-------------------------------------------------------|


Then the 1st Guitar has to play

e |-----------------------------|
h |-----------------------------|
G |-----------------------------|
D |--4444-4444-44--6666-6666-66-|
A |--xxxx-xxxx-xx--xxxx-xxxx-xx-|
E |--2222-2222-22--4444-4444-44-|



The Chorus of the first Guitar can always be played as Power Achords too.

As soon as I find out the solo I'll write it down here.
            
Submit corrections

comments powered by Disqus
↑ Back to top | Vanilla Sky Tabs for Umbrella. Lyrics for acoustic guitar and electric guitar. 1 Tablatures and chords are parodies/interpretations of the original songs. You may use it for private study, scholarship, research or language learning purposes only