» » »

Vanilla Sky, Se Vuoi Andare Vai Bass tabs (ver.1)

Artists:  A B C D E F G H I J K L M N O P Q R S T U V W X Y Z # 

Se Vuoi Andare Vai Bass tabs (ver.1)

Vanilla Sky Tabs
Rating:
5/5 (1 vote)
Hard to play? Try these video lessons and learn fast.
                

Intro  (bass start at 00:09)

G:----------------------|
D:----------------------|     x2
A:--5-------------------|
E:-----5--7--9----------|


Verse 1

G:----------------------|
D:----------------------|     x2
A:--5-------------------|
E:-----5--7--9----------|

Bass stop at 00:23 & restart at 00:27

G:----------------------|
D:----------------------|     x2
A:--5-------------------|
E:-----5--7--9----------|

Bass stop at 00:37 & restart at 00:40

G:----------------------|
D:----------------------|     
A:--5-------------------|
E:-----5--7--9----------|



Pre- chorus
G:----------------------|
D:----------------------|   
A:----------------------|
E:--55555555--33333333--|

chorus
G:----------------------------------------|
D:----------------------------------------|   x2
A:-55555555------------22222222-----------|
E:-----------33333333------------33333333-|


intro2
G:----------------------|
D:----------------------|     
A:--5-------------------|
E:-----5--7--9----------|  x2


verse 2
G:--------------------------------------|
D:--------------------------------------|   
A:--55555555555555555-------------------|
E:---------------------3333333333333333-|

G:---------------------------------------|
D:---------------------------------------|   
A:--55555555555555555--------------------|
E:---------------------3333333333333333--|

Pre- chorus
G:----------------------|
D:----------------------|   
A:----------------------|
E:--55555555--33333333--|

chorus
G:----------------------------------------|
D:----------------------------------------|   x2
A:-55555555------------22222222-----------|
E:-----------33333333------------33333333-|



break

G:----------------------|
D:----------------------|   
A:----------------------|
E:-00000000--33333333---|

G:-----------------------------|
D:-----------------------------|   
A:-----------------------------|
E:-00000000--33333333--5555555-|


chorus
G:----------------------------------------|
D:----------------------------------------|   x2
A:-55555555------------22222222-----------|
E:-----------33333333------------33333333-|




By meangirl
            

comments powered by Disqus
↑ Back to top | Vanilla Sky Bass for Se Vuoi Andare Vai. Lyrics for acoustic guitar and electric guitar. Tablatures and chords are parodies/interpretations of the original songs. You may use it for private study, scholarship, research or language learning purposes only