>
 >
Se Vuoi Andare Vai

Se Vuoi Andare Vai Guitar Tabs

Vanilla Sky - Se Vuoi Andare Vai chords, tabs, tablatures, lyrics

Guitar lessons | Add/correct | Request | Top 50 tabs Artists:  A B C D E F G H I J K L M N O P Q R S T U V W X Y Z 0-9

Se Vuoi Andare Vai Guitar Tabs – Vanilla Sky

CD, Sheet music, Poster

Do you like Se Vuoi Andare Vai? Share with your friends now
Bass TabsTabs
Vanilla sky - se vuoi andare vai

/ = slide

Intro (with piano but impovvised on guitar)


E:--10-7/9/7/9/10---------------------------|
B:------------------------------------------|
G:------------------------------------------|     x3
D:------------------------------------------|
A:------------------------------------------|
E:------------------------------------------|

E:----10----10----10----10----10-----10---10----10----10----10-|
B:-10----------10----------10----------10----10----10----------|
G:-------------------------------------------------------------|
D:-------------------------------------------------------------|    x2
A:-------------------------------------------------------------|
E:-------------------------------------------------------------|


verse 1 (with piano but impovvised on guitar)

E:----10----10----10----10----10-----10---10----10----10----10-|
B:-10----------10----------10----------10----10----10----------|
G:-------------------------------------------------------------|
D:-------------------------------------------------------------|     x8
A:-------------------------------------------------------------|
E:-------------------------------------------------------------|


pre-chorus

E:------------------------------------------|
B:------------------------------------------|
G:------------------------------------------|
D:--7777777--5555555------------------------|
A:--7777777--5555555------------------------|
E:--5555555--3333333------------------------|

chorus

E:------------------------------------------|
B:------------------------------------------|
G:--7777777-----------4444444---------------|
D:--7777777--5555555--4444444--5555555------|     x2
A:--5555555--5555555--2222222--5555555------|
E:-----------3333333-----------3333333------|


verse 2

E:--10-7/9/7/9/10---------------------------|
B:------------------------------------------|
G:------------------------------------------|   (with piano but impovvised on guitar)
D:------------------------------------------|
A:------------------------------------------|
E:------------------------------------------|

E:----10----10----10----10----10-----10---10----10----10----10-|
B:-10----------10----------10----------10----10----10----------|
G:-------------------------------------------------------------|
D:-------------------------------------------------------------|    x2    (with piano 
impovvised on guitar)
A:-------------------------------------------------------------|
E:-------------------------------------------------------------|

E:------------------------------------------|
B:------------------------------------------|
G:--7777777777777777------------------------|
D:--7777777777777777--5555555555555555------|    x2
A:--5555555555555555--5555555555555555------|
E:--------------------3333333333333333------|

pre-chorus

E:------------------------------------------|
B:------------------------------------------|
G:------------------------------------------|
D:--7777777--5555555------------------------|
A:--7777777--5555555------------------------|
E:--5555555--3333333------------------------|


E:------------------------------------------|
B:------------------------------------------|
G:--7777777-----------4444444---------------|
D:--7777777--5555555--4444444--5555555------|     x2
A:--5555555--5555555--2222222--5555555------|
E:-----------3333333-----------3333333------|


break

E:------------------------------------------|
B:------------------------------------------|
G:--9999999---------------------------------|
D:--9999999--5555555------------------------|
A:--7777777--5555555------------------------|
E:-----------3333333------------------------|

E:------------------------------------------|
B:------------------------------------------|
G:--9999999---------------------------------|
D:--9999999--5555555--7777777---------------|
A:--7777777--5555555--7777777---------------|
E:-----------3333333--5555555---------------|


E:------------------------------------------|
B:------------------------------------------|
G:--7777777---------------------------------|
D:--7777777---------------------------------|
A:--5555555---------------------------------|
E:------------------------------------------|


chorus    x2

guitar 2   (at 02:47)
E:------------------------------------------|
B:------------------------------------------|
G:--7--9--11--12--15------------------------|
D:------------------------------------------|
A:------------------------------------------|
E:------------------------------------------|


guitar 1
E:------------------------------------------|
B:------------------------------------------|
G:--7777777-----------4444444---------------|
D:--7777777--5555555--4444444--5555555------|     x2
A:--5555555--5555555--2222222--5555555------|
E:-----------3333333-----------3333333------|


E:----10----10----10----10----10-----10---10----10----10----10-|
B:-10----------10----------10----------10----10----10----------|
G:-------------------------------------------------------------|
D:-------------------------------------------------------------|    x2    (with piano 
impovvised on guitar)
A:-------------------------------------------------------------|
E:-------------------------------------------------------------|

By meangirl





Comments


Popular Vanilla Sky tabs & chords
A Thousand Miles Chords
Broken Car Chords
Umbrella Chords
Umbrella 1 Chords
Cambiamenti Tabs
Devastante Tabs
Goodbye Tabs
Just Dance Tabs
A Thousand Miles Ukulele
Just Dance Ukulele


Song lyrics



↑ Back to top | Tablatures and chords are parodies/interpretations of the original songs. You may use it for private study, scholarship, research or language learning purposes only
© 2014 AZChords.com Contact us | Privacy policy | DMCA | Add/correct tabs | Request tabs | Top 50 tabs