» » »

Vanilla Sky, Break It Out Tabs (ver.1)

Artists:  A B C D E F G H I J K L M N O P Q R S T U V W X Y Z # 

Break It Out Tabs (ver.1)

Vanilla Sky Tabs
 Rating:
4.2/5 (5 votes)
Break It Out lessons Tabs too difficult? Try these video lessons and learn fast
                Album:Changes

I love this song and i think that vanilla sky are one of the best italian band of ever...
Break it out was very hard for me to tab,and i know that i have surely made some mistakes,
but this tab sounds pretty good with the song...if you have comments,correction(or if
enjoy it ;)!

Verse 00:00-00:46  at 00.24 comes bass

e-----------------------------------------------------------------|
b-----------------------------------------------------------------|
g-----------------------------------------------------------------|
d-7-7-7-7-7-7-7-7-5-5-5-5-5-5-5-5-4-4-4-4-4-4-4-4-2-2-2-2-2-2-2-2-|
a-0-0-0-0-0-0-0-0-0-0-0-0-0-0-0-0-5-5-5-5-5-5-5-5-3-3-3-3-3-3-3-3-|
e-----------------------------------------------------------------|


Chorus

e-----------------------------------------------------|
b--10-10-10-10-10-10-10-10-10-10-10-10-10-10-10-10-10-|
g--9--9--9--9--9--9--9--9--9--9--9--9--9--9--9--9--9--|
d--7--7--7--7--7--7--7--7--7--7--7--7--7--7--7--7--7--|
a--0--0--0--0--0--0--0--0--0--0--0--0--0--0--0--0--0--|
e-----------------------------------------------------|
  just break it out just break it out today

e---------------------------------|
b---------------------------------|
g---------------------------------|
d-5-5-5-5-5-5-5-5-7-7-7-7-7-7-7-7-|
a-3-3-3-3-3-3-3-3-5-5-5-5-5-5-5-5-|
e---------------------------------|


e-----------------------------------------------------|
b--10-10-10-10-10-10-10-10-10-10-10-10-10-10-10-10-10-|
g--9--9--9--9--9--9--9--9--9--9--9--9--9--9--9--9--9--|
d--7--7--7--7--7--7--7--7--7--7--7--7--7--7--7--7--7--|
a--0--0--0--0--0--0--0--0--0--0--0--0--0--0--0--0--0--|
e-----------------------------------------------------|

e---------------------------------| x2
b---------------------------------|
g---------------------------------|
d-3-3-3-3-3-3-3-3-5-5-5-5-5-5-5-5-|
a-3-3-3-3-3-3-3-3-5-5-5-5-5-5-5-5-|
e-1-1-1-1-1-1-1-1-3-3-3-3-3-3-3-3-|

Verse2 01:10

e-----------------------------------------------------------------|  X3
b-----------------------------------------------------------------|
g-----------------------------------------------------------------|
d-7-7-7-7-7-7-7-7-5-5-5-5-5-5-5-5-4-4-4-4-4-4-4-4-2-2-2-2-2-2-2-2-|
a-0-0-0-0-0-0-0-0-0-0-0-0-0-0-0-0-5-5-5-5-5-5-5-5-3-3-3-3-3-3-3-3-|
e-----------------------------------------------------------------|

01:28                             01:30

e---------------------------------0-0--0-0--------|
b---------------------------------3-3--3-3--------|
g---------------------------------2-2--2-2--------|
d-7-7-7-7-7-7-7-7-5-5-5-5-5-5-5-5-0-0--0-0--------|
a-0-0-0-0-0-0-0-0-0-0-0-0-0-0-0-0-----------------|
e-------------------------------------------------|


e-----------------------------------------------------------------|
b-----------------------------------------------------------------|
g-----------------------------------------------------------------|
d-7-7-7-7-7-7-7-7-5-5-5-5-5-5-5-5-4-4-4-4-4-4-4-4-2-2-2-2-2-2-2-2-|
a-0-0-0-0-0-0-0-0-0-0-0-0-0-0-0-0-5-5-5-5-5-5-5-5-3-3-3-3-3-3-3-3-|
e-----------------------------------------------------------------|

Chorus

e-----------------------------------------------------|
b--10-10-10-10-10-10-10-10-10-10-10-10-10-10-10-10-10-|
g--9--9--9--9--9--9--9--9--9--9--9--9--9--9--9--9--9--|
d--7--7--7--7--7--7--7--7--7--7--7--7--7--7--7--7--7--|
a--0--0--0--0--0--0--0--0--0--0--0--0--0--0--0--0--0--|
e-----------------------------------------------------|
  just break it out just break it out today

e---------------------------------|
b---------------------------------|
g---------------------------------|
d-5-5-5-5-5-5-5-5-7-7-7-7-7-7-7-7-|
a-3-3-3-3-3-3-3-3-5-5-5-5-5-5-5-5-|
e---------------------------------|


e-----------------------------------------------------|
b--10-10-10-10-10-10-10-10-10-10-10-10-10-10-10-10-10-|
g--9--9--9--9--9--9--9--9--9--9--9--9--9--9--9--9--9--|
d--7--7--7--7--7--7--7--7--7--7--7--7--7--7--7--7--7--|
a--0--0--0--0--0--0--0--0--0--0--0--0--0--0--0--0--0--|
e-----------------------------------------------------|


e--------------------------------x2------------|
b----------------------------------------------|after2ndtime
g----------------------------------------------|
d-3-3-3-3-3-3-3-3-5-5-5-5-5-5-5-5-------7--7---|
a-3-3-3-3-3-3-3-3-5-5-5-5-5-5-5-5-------7--7---|
e-1-1-1-1-1-1-1-1-3-3-3-3-3-3-3-3-------5--5---|

Bridge  02:04
(keyboards)

Am  E   Am   C  F  E  Am  Am

enter drums
Am  E   Am   C  F  E  Am  Am

02:29  pikslide(enter guitar)guitar plays chords
(i suggest to use power chords for this part)

Am  E   Am   C  F  E  Am  Am

Am  E   Am   C  F  E  Am  Am

Chorus  02:54

e-----------------------------------------------------|
b--10-10-10-10-10-10-10-10-10-10-10-10-10-10-10-10-10-|
g--9--9--9--9--9--9--9--9--9--9--9--9--9--9--9--9--9--|
d--7--7--7--7--7--7--7--7--7--7--7--7--7--7--7--7--7--|
a--0--0--0--0--0--0--0--0--0--0--0--0--0--0--0--0--0--|
e-----------------------------------------------------|
  just break it out just break it out today

e---------------------------------|
b---------------------------------|
g---------------------------------|
d-5-5-5-5-5-5-5-5-7-7-7-7-7-7-7-7-|
a-3-3-3-3-3-3-3-3-5-5-5-5-5-5-5-5-|
e---------------------------------|


e-----------------------------------------------------|
b--10-10-10-10-10-10-10-10-10-10-10-10-10-10-10-10-10-|
g--9--9--9--9--9--9--9--9--9--9--9--9--9--9--9--9--9--|
d--7--7--7--7--7--7--7--7--7--7--7--7--7--7--7--7--7--|
a--0--0--0--0--0--0--0--0--0--0--0--0--0--0--0--0--0--|
e-----------------------------------------------------|

e---------------------------------|
b---------------------------------|
g---------------------------------|
d-3-3-3-3-3-3-3-3-5-5-5-5-5-5-5-5-|
a-3-3-3-3-3-3-3-3-5-5-5-5-5-5-5-5-|
e-1-1-1-1-1-1-1-1-3-3-3-3-3-3-3-3-|


e-----------------------------------------------------|
b--10-10-10-10-10-10-10-10-10-10-10-10-10-10-10-10-10-|
g--9--9--9--9--9--9--9--9--9--9--9--9--9--9--9--9--9--|
d--7--7--7--7--7--7--7--7--7--7--7--7--7--7--7--7--7--|
a--0--0--0--0--0--0--0--0--0--0--0--0--0--0--0--0--0--|
e-----------------------------------------------------|
  just break it out just break it out today

e---------------------------------|
b---------------------------------|
g---------------------------------|
d-5-5-5-5-5-5-5-5-7-7-7-7-7-7-7-7-|
a-3-3-3-3-3-3-3-3-5-5-5-5-5-5-5-5-|
e---------------------------------|

e-----------------------------------------------------|
b--10-10-10-10-10-10-10-10-10-10-10-10-10-10-10-10-10-|
g--9--9--9--9--9--9--9--9--9--9--9--9--9--9--9--9--9--|
d--7--7--7--7--7--7--7--7--7--7--7--7--7--7--7--7--7--|
a--0--0--0--0--0--0--0--0--0--0--0--0--0--0--0--0--0--|
e-----------------------------------------------------|

e------------------------------------4---|
b------------------------------------2---|
g------------------------------------1---|
d------------------------------------2---|
a------------------------------------0---|
e-1-1-1-1-1-1-1-1-3-3-3-3-3-3-3-3----0---|
 keyboards plays that note          guitar chord
            
Submit corrections

comments powered by Disqus
↑ Back to top | Vanilla Sky Tabs for Break It Out. Lyrics for acoustic guitar and electric guitar. Tablatures and chords are parodies/interpretations of the original songs. You may use it for private study, scholarship, research or language learning purposes only