» » »

Play That Funky Music Bass tabs (ver.1)

Artists:  A B C D E F G H I J K L M N O P Q R S T U V W X Y Z # 

Play That Funky Music Bass tabs (ver.1)

Vanilla Ice
Rating:
5/5 (1 vote)

Hard to play? Try these video lessons and learn fast.
                
this song is pretty cool.
this is similiar to Wild Cherry's bass line.
tuning can be set lower if desired.


Intro/Chorus:
                                   and on last:
G--------------------------------||-------------------------------||
D--4-2---2-----------------------||-4-2---2-----------------------||
A------4---4-0-2-0-2-4-2-0-------||-----4---4-0-2-0-2-4-2-0-------||
E--------------------------2-0---||-------------------------2-0-2-||
 "lay down that boogie and play that funky music till you die"


Verse/Chorus:
G-----------------------------|
D------4-2-4------2h4---------|
A------------2h4--------------|
E--2--------------------------|



that is pretty much it. 
note: there are a few pauses in the song/bass line.
please let me know if i made any mistakes. k. enjoy
            
Hard to play? Try these video lessons and learn fast. | Correct




comments powered by Disqus
↑ Back to top | Tablatures and chords are parodies/interpretations of the original songs. You may use it for private study, scholarship, research or language learning purposes only