» » »

Vanilla Ice, Ninja Rap Bass tabs (ver.1)

Artists:  A B C D E F G H I J K L M N O P Q R S T U V W X Y Z # 

Ninja Rap Bass tabs (ver.1)

Vanilla Ice Tabs
 Rating:
4/5 (4 votes)
Ninja Rap lessons Tabs too difficult? Try these video lessons and learn fast
                
Standard Tuning

Intro x4
G-----------------|
D-----------------|
A-----------------|
E-2-------5---5-4-|


Verse x5
G-------------------|
D-------------------|
A-------------------|
E-22-------55-------|


Chorus A
G----------------------------------|
D----------------------------------|
A----------------------------------|
E-22-------5---5-4-2-------2-2-2-2-|

Go Ninja, Go Ninja Go! Go Ninja, Go Ninja Go!

G-------------------------|
D-------------------------|
A-------------------------|
E-2-------5---5-4-2-2-2-2-|

Verse x5

Chorus A

Verse x5

Chorus B
G----------------------------------|
D----------------------------------|
A----------------------------------|
E-22-------5---5-4-2-------2-2-2-2-|

Go Ninja, Go Ninja Go! Go Ninja, Go Ninja Go!

G---------------------------------|
D---------------------------------|
A---------------------------------|
E-2-------5---5-4-2-2-2-2-2-2-2-2-|

G---------------------------------|
D---------------------------------|
A---------------------------------|
E-2-------5---5-4-2-------2-2-2-2-| x2

Verse x16 (Outro)

Intro and chorus just follow the Keytar. During the verses, it's 2 quick strums at the 
of each line, and the same pace for the outro.
            
Submit corrections

comments powered by Disqus
↑ Back to top | Vanilla Ice Bass for Ninja Rap. Lyrics for acoustic guitar and electric guitar. Tablatures and chords are parodies/interpretations of the original songs. You may use it for private study, scholarship, research or language learning purposes only