>
 >
Unchained 2

Unchained 2 Guitar Tabs

Van Halen - Unchained 2 chords, tabs, tablatures, lyrics

Guitar lessons | Add/correct | Request | Top 50 tabs Artists:  A B C D E F G H I J K L M N O P Q R S T U V W X Y Z 0-9

Unchained 2 Guitar Tabs – Van Halen

CD, Sheet music, Poster

Do you like Unchained 2? Share with your friends now
Bass TabsTabsTabs v2Tabs v3Tabs v4Tabs v5
Intro/chorus
E------------------------------------------------------------------------------------------------------------------------------
B--------7---8-----------3--4---3------5--6-5---7---8-------------10---11-10-------10-----8-------------------------
G--------7---7-----------3--3---3------5--5-5---7---7-------------10--10--10-------10-----9----------------------------
D--------7---7-----------3--3---3------5--5-5---7---7-------------10--10--10-------10----10---------------------------
A--------5---5-----------1--1---1------3--3-3---5---5-------------8--- -8--8----8---8------------------------------------
E----------------x-x-x--------------------------------------x-x-x------------------------------------------------------------
verse
E------------------------------------------------------------------------------------------------------------------------------
B----------------------------------3-------------------------------------10p8--------8---------------------------------------
G------------------------------3------5----------------------------------------------------9-----------------------------------
D--------------------------3--------------5--------------------3/10-------------10----------10------------------------------
A---3---5--5--33/5-----------------------3--5--5--3---------------------------------------------------------------------
E------------------------------------------------------------------------------------------------------------------------------ 
Pre-chorus
E------------------------------------------------------------------------------------------------------------------------------
B------------------------------------------------------------------------------------------------------------------------------
G------------------------------------------------------------------------------------------------------------------------------
D----5--5--5-5-5-3-5--3---------------7-7-7-7-7-5-7-5---7-6-5-3-------------------------------------------------------
A----5--5--5-5-5-3-5--3---------------7-7-7-7-7-5-7-5---7-6-5-3-------------------------------------------------------
E----3--3--3-3-3/1/3--1----x2---------5-5-5-5-5/3/5-3---5-4-3-1-------------------------------------------------------
Solo: on this first 2 notes bend down whole step, in other words pre-bend the note up 1 whole step and then release tension on the string, vibrato here, quick pick and pull here, bend  step on twelfth fret first time u play it, then near end of solo bend up 1 whole step the second time u play fret 20 on b string, lastly on last note of solo bend up 1 whole step.
E-----------20-------------------------------*-------------10-13p10-13p10-13p10-13p10-12----12-13-14-15--------
B-----18-------------3h6p3h6p3h6p3---------------------------------------------------------------------------------------
G-----------------0-------------------------5p3-------------------------------------------------------------------------------
D--------------------------------------------------5---------------------------------------------------------------------------
A------------------------------------------------------------------------------------------------------------------------------
E------------------------------------------------------------------------------------------------------------------------------
					Bend here			and on last note
E---15p14p12----------12-----------------17-------17-----*---------19--------17--20--19-20--19--20----------------
B--------------------15-------13-----------------20--------20----17--------20---------------------------------------------
G------------------------------------/18---------------------------------------------------------------------------------------
D------------------------------------------------------------------------------------------------------------------------------
A------------------------------------------------------------------------------------------------------------------------------
E------------------------------------------------------------------------------------------------------------------------------





Comments


Popular Van Halen tabs & chords
Somebody Get Me A Doctor 2 Bass Tabs
Ain't Talkin Bout Love Chords
Eruption 4 Tabs
Jump 3 Tabs
Mean Streets Tabs
Put Out The Lights Tabs
Right Now Tabs
Runnin' With The Devil 1 Tabs
Take Your Whiskey Home Tabs
You Really Got Me Tabs


Song lyrics



↑ Back to top | Tablatures and chords are parodies/interpretations of the original songs. You may use it for private study, scholarship, research or language learning purposes only
© 2014 AZChords.com Contact us | Privacy policy | DMCA | Add/correct tabs | Request tabs | Top 50 tabs