>
 >
Stay Frosty

Stay Frosty Bass Tabs

Van Halen - Stay Frosty chords, tabs, tablatures, lyrics

Guitar lessons | Add/correct | Request | Top 50 tabs Artists:  A B C D E F G H I J K L M N O P Q R S T U V W X Y Z 0-9

Stay Frosty Bass Tabs – Van Halen

CD, Sheet music, Poster

Do you like Stay Frosty? Share with your friends now
Bass TabsChordsTabsUkulele
-------------------------------------------------------------------------------
                             STAY FROSTY - Van Halen
-------------------------------------------------------------------------------



Tuning: Drop C


     Intro - m.53 - half-time feel                                                               
     Q    Q    H           Q    Q    H           Q    Q    Q    Q     
F||---------------------|---------------------|----------------------|
C||---------------------|---------------------|----------------------|
G||---------------------|---------------------|----------------------|
C||--0------------------|--0------------------|--0---------0---------|


  Q    Q    E  E  Q       Q    Q    E  E  Q       Q    Q    E  E  Q     
-----------------------|-----------------------|-----------------------|
-----------------------|-----------------------|-----------------------|
-----------------------|-----------------------|-----------------------|
--0------------3--L----|--0------------3--L----|--0------------3--L----|


                                     |---3---|   |---3---|   
  Q    Q    Q    Q       Q    Q      E   E   E   E   E   E   
----------------------|-------------------------------------||
----------------------|-------------12--12--12--12--12--12--||
----------------------|-------5/----------------------------||
--0---------0---------|--0----------------------------------||


  Pre-verse                                                                          
  Q    E  E  E  E  E  E     E  E  Q    Q    E  E     E  E  E  E  E  E  E  E   
-------------------------|------------------------|--------------------------|
-------------------------|------------------------|--------------------------|
-------5--0--5--0--3--0--|------------------3--0--|--5-----8-----5-----3--0--|
--0----------------------|--3--7--0----0----------|-----0-----0-----0--------|


  E  E  Q    Q    E  E     E  E  Q    Q    E  E     E  E  Q    Q    E  E   
------------------------|------------------------|------------------------|
------------------------|------------------------|------------------------|
--5---------------3--0--|--5---------------3--0--|--5---------------3--0--|
-----0--0----0----------|-----0--0----0----------|-----0--0----0----------|


                                                       Verse 1                   
  E  E  E  E  E  E  E  E     E  E  Q    Q    E  E      Q    Q    Q    Q     
--------------------------|------------------------||----------------------|
--------------------------|------------------------||----------------------|
--5-----8-----5-----3--0--|--5---------------3--0--||----------------------|
-----0-----0-----0--------|-----0--0----0----------||--0----0----0----0----|


  Q    Q    Q    E  E     Q    Q    Q    Q       Q    Q    Q    E  E   
-----------------------|----------------------|-----------------------|
-----------------------|----------------------|-----------------------|
-----------------------|----------------------|-----------------3--3--|
--0----0----0----3--3--|--0----0----0----0----|--0----0----0----------|


  Q    Q    Q    Q       Q    Q    Q    Q        Q    Q    Q    Q     
----------------------|-----------------------|----------------------|
----------------------|-----------------------|----------------------|
----------------------|-----------------------|----------------------|
--0----0----0----0----|--0----0----0----3~----|--0----0----0----0----|


                           Chorus 1                          
                                |--3--|               
  Q    Q    Q    E  E      E  E  E  E  E  E  E  E  E   
-----------------------||-----------------------------|
-----------------------||-----------------------------|
-----------------------||--------2--2--2--5--5--7--7--|
--0----0----0----3--3--||--5--5-----------------------|


                  |--3--|                                            |---3--|   
  E  E  Q    Q    E  E  E     Q    Q    Q    Q       E  E  Q    Q    E  E   E   
---------------------------|----------------------|----------------------------|
---------------------------|----------------------|----------------------------|
--8--8--7----5----7--5-----|------------0----2----|--3--3--2---------7--9--10--|
------------------------x--|--0----4--------------|-------------0--------------|


            |--3--|                                                   |--3--|   
  Q    Q    E  E  E  Q       Q    E  E  E  E  Q       Q    Q    E  E  E  E  E   
--------------------------|------------------------|---------------------------|
--8----8----8--8--8--8----|--7----7--7--7--7--7----|--8----8----8--8--8--8--8--|
--------------------------|------------------------|---------------------------|
--------------------------|------------------------|---------------------------|


             |--3--|  |--3--|     Half-time feel                                               
  Q    E  E  E  E  E  E  E  E     Q    Q    H           Q    Q    H         
-------------------------------|---------------------|---------------------|
--7----7--7--7--7--7--7--7--9--|---------------------|---------------------|
-------------------------------|---------------------|---------------------|
-------------------------------|--0------------------|--0------------------|


  Q    Q    Q    Q       Q    Q    E  E  Q       Q    Q    E  E  Q     
----------------------|-----------------------|-----------------------|
----------------------|-----------------------|-----------------------|
----------------------|-----------------------|-----------------------|
--0---------0---------|--0------------3--L----|--0------------3--L----|


  Q    Q    E  E  Q       Q    Q    Q    Q     
-----------------------|----------------------|
-----------------------|----------------------|
-----------------------|----------------------|
--0------------3--L----|--0---------0---------|


                                         Guitar Solo 1                   
              |---3---|   |---3---|                          
  Q    Q      E   E   E   E   E   E      Q    Q    Q    Q     
-------------------------------------||----------------------|
-------------12--12--12--12--12\-----||----------------------|
-------5/----------------------------||----------------------|
--0-------------------------------0--||--5----5----5----5----|


  Q    Q    Q    Q        Q    E  E  E  E  E  E   
-----------------------|-------------------------|
-----------------------|-------------------------|
-----------------5\----|-------------0--0--2--2--|
--5----5----5----------|--0----4--0--------------|


        |---3---|        |--3--|                          
  E  E  E   E   E  E  E  E  E  E     Q    Q    Q    Q     
----------------------------------|----------------------|
----------------------------------|----------------------|
--3--2--3p--2p--0--5--------------|----------------------|
----------------------0--0--3--4--|--8----8----8----8----|


                                                               |--3--|   
  Q    Q    Q    Q       Q    Q    Q    Q       Q    Q    Q    E  E  E   
----------------------|----------------------|--------------------------|
----------------------|----------------------|--------------------------|
----------------------|----------------------|--------------------------|
--7----7----7----7----|--8----8----8----8----|--7----7----7----7--9--9--|


  Q    Q    H           Q    Q    H           Q    Q    Q    Q     
---------------------|---------------------|----------------------|
---------------------|---------------------|----------------------|
---------------------|---------------------|----------------------|
--0------------------|--0------------------|--0---------0---------|


  Q    Q    E  E  Q       Q    Q    E  E  Q       Q    Q    E  E  Q     
-----------------------|-----------------------|-----------------------|
-----------------------|-----------------------|-----------------------|
-----------------------|-----------------------|-----------------------|
--0------------3--L----|--0------------3--L----|--0------------3--L----|


                           |---3---|   |---3---|   |----3----|     
  Q    Q    Q    Q         E   E   E   E   E   E   Q    Q    Q     
-----------------------|------------------------------------------||
-----------------------|--12--12--12--12--12--12--12--------------||
-----------------5/----|------------------------------------------||
--0---------0----------|--------------------------------3----5----||


  Interlude                    
  Q    Q    H          
---------------------|
---------------------|
---------------------|
--0------------------|


  m.115                                                              
                             |---3---|   |---3---|                  
  H        Q    Q         E   E   E   E   E   E   E   E  E   E   
----------------------|-----------------------------------------|
----------------------|--12--12--12--12--12--12--12--12--L------|
----------------------|-------------------------------------10--|
----------------3/----|-----------------------------------------|


  Q    Q    Q    Q       Q    Q    Q    Q        Q    Q    Q    E  E   
----------------------|-----------------------|-----------------------|
----------------------|-----------------------|-----------------------|
----------------------|-----------------------|------------0----2--3--|
--5----5----5----5----|--5----5----5----5/----|--0----4---------------|


                  |--3--|                                                 
  E  E  Q    Q    E  E  E     Q    Q    Q    Q       Q    Q    Q    Q     
---------------------------|----------------------|----------------------|
---------------------------|----------------------|----------------------|
--L--3--2------------------|----------------------|----------------------|
-------------0----0--3--4--|--8----8----8----8----|--7----7----7----7----|


  Q    Q    Q    Q       Q    Q    H           Q    Q    H         
----------------------|---------------------|---------------------|
----------------------|---------------------|---------------------|
----------------------|---------------------|---------------------|
--8----8----8----8----|--7------------------|--0------------------|


  Q    Q    H           Q    Q    Q    Q       Q    Q    E  E  Q     
---------------------|----------------------|-----------------------|
---------------------|----------------------|-----------------------|
---------------------|----------------------|-----------------------|
--0------------------|--0---------0---------|--0------------3--L----|


  Q    Q    E  E  Q       Q    Q    E  E  Q       Q    Q    Q    Q     
-----------------------|-----------------------|----------------------|
-----------------------|-----------------------|----------------------|
-----------------------|-----------------------|----------------------|
--0------------3--L----|--0------------3--L----|--0---------0---------|


                                    Bridge                                           
              |---3---|                                                        
  Q    Q      E   E   E   Q         Q    Q    Q    Q       Q    Q    Q    Q     
--------------------------------||----------------------|----------------------|
-------------12--12--12---------||----------------------|----------------------|
-------5/----------------10\----||----------------------|----------------------|
--0-----------------------------||--0----0----0----0----|--0----0----0----0----|


  Q    Q    Q    Q       Q    Q    Q    E  E     Q    Q    Q    Q     
----------------------|-----------------------|----------------------|
----------------------|-----------------------|----------------------|
----------------------|-----------------------|----------------------|
--0----0----0----0----|--0----0----0----3--3--|--0----0----0----0----|


                                                                |--3--|   
  Q    Q    Q    Q       Q    Q    Q    Q       Q    Q    E  E  E  E  E   
----------------------|----------------------|---------------------------|
----------------------|----------------------|---------------------------|
----------------------|----------------------|---------------5--5--5--5--|
--0----5----5----3----|--0----0----0----0----|--0----0----3--------------|


  Q    Q    Q    E  E     Q    Q    Q    Q       E  E  E  E  Q    E  E   
-----------------------|----------------------|-------------------------|
-----------------------|----------------------|-------------------------|
-----------------------|----------------------|--5----------------------|
--0----3----5----6--7--|--L----6----5----3----|-----0--3--3--5----6--7--|


  Q    Q    Q    Q       Q    Q    Q    E  E     Q    Q    Q    E  E   
----------------------|-----------------------|-----------------------|
----------------------|-----------------------|-----------------------|
----------------------|-----------------------|-----------------------|
--L----6----5----3----|--0----3----5----6--7--|--L----6----5----3--0--|


                                                   Guitar Solo 2                    
  Q    Q    Q    E  E     Q    Q    Q    E  E      E  E  Q    Q    Q     
-----------------------|-----------------------||-----------------------|
-----------------------|-----------------------||-----------------------|
-----------------------|-----------------------||-----------------------|
--L----3----5----6--7--|--L----6----5----3--5--||--L--5--5----5----5----|


  Q    Q    Q    Q         E   E   Q    Q    Q       Q    E  E  E  E  E  E   
-----------------------|--------------------------|-------------------------|
-----------------------|--------------------------|-------------------------|
-----------------------|--10--10--10--------------|-------------------------|
--5----5----5----5/----|----------------5----5----|--5----5--5--5--3--3--0--|


  Q    Q    Q    E  E     Q    Q    Q    Q       Q    Q    Q    E  E   
-----------------------|----------------------|-----------------------|
-----------------------|----------------------|-----------------------|
-----------------------|----------------------|-----------------------|
--L----3----5----6--7--|--L----6----5----3----|--0----3----5----6--7--|


  Q    Q    Q    E  E     Q    Q    Q    E  E     Q    Q    Q    Q     
-----------------------|-----------------------|----------------------|
-----------------------|-----------------------|----------------------|
-----------------------|-----------------------|----------------------|
--L----6----5----3--5--|--0----3----5----6--7--|--L----6----5----3----|


  Q    Q    Q    E  E     Q    Q    E  E  E  E     W                 
-----------------------|------------------------|-------------------|
-----------------------|------------------------|-------------------|
-----------------------|------------------------|-------------------|
--0----3----5----6--7--|--L----6----5--3--3--0--|-------------------|


                                      Outro  TP           TP  
  Q    E  E  H           H            E   E  H        E   E   
----------------------|-----------||-------------------------|
----------------------|-----------||--0/---------------------|
----------------------|-----------||---------------------10--|
--0-------0-----------|-----------||------5--5--------5------|


                     TP           TP                                  
   H.            E   E     Q      H.              H.           Q      
------------------------|----------------------|---------------------|
------------------------|----------------------|---------------------|
---L------------10\-----|--------10------------|--L------------------|
---------------------5--|--L/------------------|---------------3b----|


           |-----3-----|          |--3--|  |--|   |--|   
  Q        E   E   S   S     E    S  S  S  S  E   S  E   
------------------------------------17----17-19--17-----|
-------------------------15g17~--19----19-----------19--|
-------12g17--17--15h-17--------------------------------|
--0-----------------------------------------------------|


      |---3--|  |---3--|  |---3--|  |---3--|              |---3--|  
  E   S   S  S  S   S  S  S   S  S  S   S  S  S  S  S  S  S   S  S  
-----19p-17----19p-17----19p-17----19p-17--------------------------|
--L---------19--------19--------19--------19-17-15-17-17-17p-15----|
----------------------------------------------------------------17-|
-------------------------------------------------------------------|


   S  S  S  S Q     Q    Q        H        Q    Q      
-------------------------------|---------------------||
--15---------------------------|---------------------||
-----17-15-17-L~----L----------|---------------------||
-------------------------3b----|--0--------0---------||


Duration Legend
---------------
W - whole
H - half
Q - quarter
E - 8th
S - 16th
. - note dotted
|-n-|  - n-tuplets


Tablature Legend
----------------
L - tied note
x - dead note
g - grace note
h - hammer on
p - pull off
b - bend
S - shift slide
s - legato slide
/ -  slide into from below or out of upwards
\ -  slide into from above or out of downwards
~ - vibrato
TP - tremolo picking







Comments


Popular Van Halen tabs & chords
Jaimes Cryin Bass Tabs
Little Dreamer Chords
Not Enough Chords
Shes The Woman Chords
Dreams (Intro) Tabs
Little Guitars 1 Tabs
Poundcake 3 Tabs
Runnin With The Devil 2 Tabs
Runnin With The Devil 4 Tabs
Running With The Devil 1 Tabs


Song lyrics



↑ Back to top | Tablatures and chords are parodies/interpretations of the original songs. You may use it for private study, scholarship, research or language learning purposes only
© 2014 AZChords.com Contact us | Privacy policy | DMCA | Add/correct tabs | Request tabs | Top 50 tabs