» » »

Van Halen, Jump Tabs (ver.3)

Artists:  A B C D E F G H I J K L M N O P Q R S T U V W X Y Z # 

Jump Tabs (ver.3)

Van Halen Tabs
 Rating:
4/5 (4 votes)
Jump lessons Tabs too difficult? Try these video lessons and learn fast
1
                Solo to "Jump" by Van Halen

Notes:  Eddie is one of the trickiest guitarists in the world.  His style is
        unprecedented, and you have to pay close attention to what he is 
        doing.  In comparison to some of his other solos, this one is easy.

         ~~~~~~~            ~~~~~~                              ~~~~~~~
-------19-----------7----------------7-----------7--------------------------
-----x-----------------10^(1)----------7-10p7----------------7--------------
---x------------------------------------------10---10p9p7--9---7------------

 |---------------A.H.-----------------|          A.H.

                                  ~~~~~              /---\release
--7^(1/2)----7----7(pre(1))--7^(1)---------------9^(1)----------------------
------------------------------------------9-----------------9p7-----7-------
---------------------------------------------9-------------------9----------

                   |-----------starts to produce that 'falling effect'------

                         T             T             T          T   T
          ~~~~~
-------------------7h10-14p10p9p7h10--14p10p9p7h10--14p10p9p7---------------
--------------------------------------------------------------14p7----------
9p8p7p5-7-5-----------------------------------------------------------------


--------------------|
                                                |-P.M.-|
   T        T                                                               
                       /---\release      ~~~~                            ~~~
-------------------------------------------------------7-9-12-12h14--10-12--
-----------------------------------------------------7----------------------
---------------------------------9^(1)p7-9---------7------------------------
--14p7h11----------------------------------------9--------------------------
-----------14p7h11p7^(1)------/9--------------------------------------------


----------------------------------------------------------16h17p16----------
-------------------------------------------------16h17h19-------------------
----------------------------------------16h17h19----------------------------
------------16h17h19-----------16h17h19-------------------------------------
--16h17h19-----------16h17h19-----------------------------------------------
            
Submit corrections

comments powered by Disqus
↑ Back to top | Van Halen Tabs for Jump. Lyrics for acoustic guitar and electric guitar. 1 Tablatures and chords are parodies/interpretations of the original songs. You may use it for private study, scholarship, research or language learning purposes only