» » »

Jaimes Cryin Bass tabs (ver.1)

Artists:  A B C D E F G H I J K L M N O P Q R S T U V W X Y Z # 

Jaimes Cryin Bass tabs (ver.1)

Van Halen
Rating:
0/5 (0 votes)

Hard to play? Try these video lessons and learn fast.
                Main Riff/Chorus
------------------------------------------------------------
------------------------------------------------------------
------------------------------------------------------------
-0--00-00-0-7653-0-00-00-0-7653-----------------------------
                                                                              

Or you can play like this
------------------------------------------------------------
------------9-8-7--------------9-8-7------------------------
-7--77-77-7-----10-7-77-77-7---------10---------------------
------------------------------------------------------------
                                                                              

Right before, "Woa woa, Jaime's Cryin"
-------------------------------------------------------------
----------------4--------------------------------------------
-----4------2-5----0------0-0-0-2----------------------------
-2-5---------------------------------------------------------
                                                                             

Thump for a bit "She Wants To Send Him A Letter" 
-------------------------------------------------------------
-------------------------------------------------------------
-------------------------------------------------------------
-5-5-5-5-5-5-5-5-5-5-5-5-5-----------------------------------
                                                                              

Slow Part "Now Jaime's Been In Love Before"
-------|------|------|------|------|-11-12-11----------------
-------|-----4|------|------|------|-------------------------
-4-4-4-|-5-7--|-4-4-4|------|-4-4-4|-------------------------
-------|------|------|-2-2-2|------|-------------------------

Please Be Kind. This is my first tab. This is totally correct if you play it right.
            
Hard to play? Try these video lessons and learn fast. | Correct




comments powered by Disqus
↑ Back to top | Tablatures and chords are parodies/interpretations of the original songs. You may use it for private study, scholarship, research or language learning purposes only