» » »

Eruption [Tapping Tabs (ver.1)

Artists:  A B C D E F G H I J K L M N O P Q R S T U V W X Y Z # 

Eruption [Tapping Tabs (ver.1)

Van Halen
Rating:
0/5 (0 votes)

Hard to play? Try these video lessons and learn fast.
                (Part)
This is the most known tapping part from Van Halen's Eruption.
There are lots of versions of this song, one lasting 8 minutes,
one in another key, this is transcribed from the 1:41 min. long
version from the "Best Of, Volume One" CD from 1996. Enjoy...

This is a very fast song, and you'll have to have your fingers 
with you, if you listen carefully, even Van Halen does some small mistakes..

----------------------------------------------------------|-------------------
-11-1h4--8-1h4--8-1h4--8-1h4--8-1h4--8-1h4--8-1h4--8-1h4--|--9-1h4--9-1h4-----
----------------------------------------------------------|-------------------
----------------------------------------------------------|-------------------
----------------------------------------------------------|-------------------
----------------------------------------------------------|-------------------
 t       t      t      t      t      t      t      t         t      t         

-------------------------------------------|----------------------------------
-9-1h4--9-1h4--9-1h4--9-1h4--9-1h4--9-1h4--|--9-3h6--9-3h6--9-3h6--9-3h6------
-------------------------------------------|----------------------------------
-------------------------------------------|----------------------------------
-------------------------------------------|----------------------------------
-------------------------------------------|----------------------------------
 t      t      t      t      t      t         t      t      t      t          

-------------------------------|----------------------------------------------
-9-3h6--9-3h6--11-3h6--11-3h6--|--11-4h8--11-4h8--11-4h8--11-4h8--11-4h8------
-------------------------------|----------------------------------------------
-------------------------------|----------------------------------------------
-------------------------------|----------------------------------------------
-------------------------------|----------------------------------------------
 t      t      t       t          t       t       t       t       t           

-------------------------|----------------------------------------------------
-11-4h8--11-4h8--11-4h8--|--12-4h7--12-4h7--12-4h7--12-4h7--12-4h7--12-4h7----
-------------------------|----------------------------------------------------
-------------------------|----------------------------------------------------
-------------------------|----------------------------------------------------
-------------------------|----------------------------------------------------
 t       t       t          t       t       t       t       t       t         

------------------|-----------------------------------------------------------
-14--4h7--14-4h7--|--14-6h9--14-6h9--14-6h9--14-6h9--14-6h9--14-6h9--16-6h9---
------------------|-----------------------------------------------------------
------------------|-----------------------------------------------------------
------------------|-----------------------------------------------------------
------------------|-----------------------------------------------------------
 t        t          t       t       t       t       t       t       t        

---------|--------------------------------------------------------------------
-16-6h9--|--16-8h11--16-8h11--16-8h11--16-8h11--16-8h11--16-8h11--16-8h11-----
---------|--------------------------------------------------------------------
---------|--------------------------------------------------------------------
---------|--------------------------------------------------------------------
---------|--------------------------------------------------------------------
 t          t        t        t        t        t        t        t           

----------|-------------------------------------------------------------------
-16-8h11--|--16-8h11--16-8h11--16-8h11--16-8h11--16-8h11--16-8h11-------------
----------|-------------------------------------------------------------------
----------|-------------------------------------------------------------------
----------|-------------------------------------------------------------------
----------|-------------------------------------------------------------------
 t           t        t        t        t        t        t                   

-16-11h14--16-11h14--16-10h13--16-10h13--16-9h12--16-9h12--16-8h11--16-8h11---
 t         t         t         t         t        t        t        t         

-16-11h14--16-11h14--16-10h13--16-10h13--16-9h12--16-9h12--16-8h11--16-8h11---
 t         t         t         t         t        t        t        t         

-14-9h12--14-9h12--14-8h11--14-8h11--14-7h10--14-7h10--14-6h9--14-6h9---------
 t        t        t        t        t        t        t       t              

-12-7h10--12-7h10--12-6h9--12-6h9--12-5h8--12-5h8--12-4h7--12-4h7-------------
 t        t        t       t       t       t       t       t                  

-11-3h6--11-3h6--11-3h6--11-3h6--11-3h6--11-3h6--11-3h6--11-3h6---------------
 t       t       t       t       t       t       t       t                    

-11-4h7--11-4h7--11-4h7--11-4h7--11-4h7--11-4h7--11-4h7--11-4h7---------------
 t       t       t       t       t       t       t       t                    

-11-3h6--11-3h6--11-3h6--11-3h6--11-3h6--11-3h6--11-3h6--11-3h6---------------
 t       t       t       t       t       t       t       t                    

-11-4h7--11-3h6--11-4h7--11-3h6--11-4h7--11-3h6--11-4h7--11-3h6---------------
 t       t       t       t       t       t       t       t                    

-11-4h7--11-3h6--11-4h7--11-3h6--11-4h7--11-3h6--11-4h7--11-3h6--4\-----------
 t       t       t       t       t       t       t       t                    


feb 03
            
Hard to play? Try these video lessons and learn fast. | Correct




comments powered by Disqus
↑ Back to top | Tablatures and chords are parodies/interpretations of the original songs. You may use it for private study, scholarship, research or language learning purposes only