>
 >
Eruption 2

Eruption 2 Guitar Tabs

Van Halen - Eruption 2 chords, tabs, tablatures, lyrics

Guitar lessons | Add/correct | Request | Top 50 tabs Artists:  A B C D E F G H I J K L M N O P Q R S T U V W X Y Z 0-9

Eruption 2 Guitar Tabs – Van Halen

CD, Sheet music, Poster

Do you like Eruption 2? Share with your friends now
Bass TabsDrum TabsTabsTabs v2Tabs v3Tabs v4Tabs v5Tabs v6Tabs v7Tabs v8

This was originally submitted by Chris Bay, then another person edited it,
but they both forgot to say the tapping. So i'm just making it really
accurate

                                *pinched harmonic
e------I-----------------------------------5---------------
B------I-----------------------------------5--5--8p5p0-----
G---2--I-----------------5--7b8p7--5--7b9---------------8--
D---2--I-----------5--7------------------------------------
A---0--I-7b(9)-7b(9)---------------------------------------
E------I---------------------------------------------------

e--------------------------------------------5------------------------
B---5h8p5p0--5h8p5p0--5h8p5p0--5h8p5p0-----5---8--5------5------------
G--------------------------------------7b9-------------7---7b8p7p5----
D----------------------------------------------------0-------------6--
A---------------------------------------------------------------------
E---------------------------------------------------------------------

e---------------------------------------------------------------
B---------------------------------------------------------------
G---4---5---7---5--7p5p4---4h7p5p4---4--------------------------
D----------------------------------7---7--6--5--4---------------
A---------------------------------------------------7--6--5--3--
E---------------------------------------------------------------

e-------------------------------------------------------------
B------------------------------------------------3---3--------
G-----------------0--------------------------2---0---2---2/0--
D--------------------------------------------2---0---0--------
A---------------------3---0h2p0h2p0h2p0h1p0--0----------------
E---5\16--0h5p3----------------------------------3------------

e---------17------17-------17--------17-------17--20--21----20--17-
B---20(22)--20(22)---20(22)---20(22)----20---------------19--------
G------------------------------------------0-----------------------
D------------------------------------------------------------------
A------------------------------------------------------------------
E------------------------------------------------------------------

e---------------17-------17-------17-------17----------
B-19(22)-20(22)---20(22)---20(22)----20(22)-----20-----
G---------------------------------------------------0--
D------------------------------------------------------
A------------------------------------------------------
E------------------------------------------------------

e---17--20--21----20--17-------------17-------17--20(21)20(17)-----17-
B--------------19--------19(22)19(20)---21(22)-----------------20-----
G---------------------------------------------------------------------
D---------------------------------------------------------------------
A---------------------------------------------------------------------
E---------------------------------------------------------------------

e---------------------------------------------------------
B--20(22)20(17)--20(22)20(17)--20(22)20(17)---20(22)20(22)
G--------------19-------------------------19--------------
D---------------------------------------------------------
A---------------------------------------------------------
E---------------------------------------------------------

e--------------16h17h20--------------17--20--17h20p17p14h15p14-15p14--------------
B-----16h18h20-------------17h20---X---------------------------------17p14--------
G--18--------------------18-------X----------------------------------------17(18)-
D---------------------------------------------------------------------------------
A---------------------------------------------------------------------------------
E---------------------------------------------------------------------------------

e---------------------------------------------------------------
B--14-------------------------------------------------17--------
G----18(19)18p14--17p14h17p14h17p14\----19(21)19(21)-----19(21)-
D---------------------------------------------------------------
A---------------------------------------------------------------
E------------------------------------0\-------------------------

Hyper picking
e------16--19--17--16--17------16----16--19--17--16--17---------------
B--17----------------------19-----17---------------------19-----------
G---------------------------------------------------------------------
D---------------------------------------------------------------------
A---------------------------------------------------------------------
E---------------------------------------------------------------------

e--16--12--14--12/10-10-10-10-10-12-10/9-9-9-10-9/7-7-7-9-7/5-5-5---------------
B-------------------------------------------------------------------------------
G-------------------------------------------------------------------------------
D-------------------------------------------------------------------------------
A-------------------------------------------------------------------------------
E-------------------------------------------------------------------------------

e--7-5/3-3-3-5-3--1-1-1-1-1-1-1-1-1h3p1p0-------------------------------
B-----------------------------------------5p3p1p0-----------------------
G--------------------------------------------------2b4p2/1--------------
D-----------------------------------------------------------------------
A-----------------------------------------------------------2\----------
E---------------------------------------------------------------0-13-0--

e--------------------------------------------------------
B--------------------------------6p0h5-------8p0h7--5b7--
G----------------5p0-------5-0-4-------7p0h5-------------
D----5h7-7-7-7-7-----7-7-7-------------------------------
A--7-----------------------------------------------------
E--------------------------------------------------------

e---------------------------------------------------------------
B----------------------------------------------4p0--------------
G---------------------------------------5p0h4------6--4b6--4p0--
D--------------5p0----------5p0---7-4-4-------------------------
A----5h7-7-7-7------7-7-7-7-----7-------------------------------
E--7------------------------------------------------------------

e------------------------------------------------------
B------------------------------------------------------
G-----------------5p0---------5p0---6-0-5-------8------
D-----5h7-7-7-7-7-----7-7-7-7-----8-------7-0/5----10--
A--7---------------------------------------------------
E------------------------------------------------------

e----------------------------------------------------
B----------------------------------------------------
G--9h11p9h11p9h11p9\7h9p7h9p7\5h7p5h7p5\4h6p4h6p4h6--
D----------------------------------------------------
A----------------------------------------------------
E----------------------------------------------------

Outro:   The notes with "T" above them mean TAP

    T      T      T      T      T      T      T      T 
e-----------------------------------------------------------
B-----------------------------------------------------------
G--18p6h9-13p6h9-13p6h9-13p6h9-13p6h9-13p6h9-13p6h9-13p6h9--
D-----------------------------------------------------------
A-----------------------------------------------------------
E-----------------------------------------------------------
    T      T      T      T      T      T      T      T  
e-------------------------------------------------------------
B-------------------------------------------------------------
G--14p6h9-14p6h9-14p6h9-14p6h9-14p6h9-14p6h9-14p6h9-14p6h9p8--
D-------------------------------------------------------------
A-------------------------------------------------------------
E-------------------------------------------------------------

       T       T     x3  T       T           T       T      x4
e--I-----------------I-------------------I------------------I--
B--I-----------------I-------------------I------------------I--
G--I--14p8h11-14p8h4-I--16p8h11-16p8h11--I--16p9h13-16p9h13-I--
D--I-----------------I-------------------I------------------I--
A--I-----------------I-------------------I------------------I--
E--I-----------------I-------------------I------------------I--

       T       T       x3  T       T           T        T        x3
e--I-------------------I-------------------I---------------------I--
B--I-------------------I-------------------I---------------------I--
G--I--17p9h12-17p9h12--I--19p9h13-19p9h13--I--19p11h14-19p11h14--I--
D--I-------------------I-------------------I---------------------I--
A--I-------------------I-------------------I---------------------I--
E--I-------------------I-------------------I---------------------I--

    T        T            T        T      x3
e---------------------I---------------------
B---------------------I---------------------
G--21p11h14-21p14h11--I--21p16p13-21p16p13--
D---------------------I---------------------
A---------------------I---------------------
E---------------------I---------------------
    T      T      T         T         T         T         T
e---------------------------------------------------------------
B---------------------------------------------------------------
G--21p13--21p13--21p13h16--21p13h16--21p13h16--21p13h16--21p16--
D---------------------------------------------------------------
A---------------------------------------------------------------
E---------------------------------------------------------------
    T         T         T         T         T        T
e--------------------------------------------------------------
B--------------------------------------------------------------
G--21p16h19--21p15h18--21p15h18--21p14h17--21p13h16--21p13h16--
D--------------------------------------------------------------
A--------------------------------------------------------------
E--------------------------------------------------------------
        T         T         T         T         T         T
e------------------------------------------------------------------
B------------------------------------------------------------------
G--19--21p16h19--21p16h19--21p15h18--21p15h18--21p14h17--21p14h17--
D------------------------------------------------------------------
A------------------------------------------------------------------
E------------------------------------------------------------------
    T         T         T         T         T         T         T
e------------------------------------------------------------------------
B------------------------------------------------------------------------
G--21p13h16--21p13h16--21p14h17--19p14h17--19p13h16--19p13h16--19p12h15--
D------------------------------------------------------------------------
A------------------------------------------------------------------------
E------------------------------------------------------------------------
    T         T         T                            T         T
e-----------------------------------------------------------------------
B-----------------------------------------------------------------------
G--19p12h15--19p11h14--19p11h14--16\17p15h17p12h15--17p11h14--17p11h14--
D-----------------------------------------------------------------------
A-----------------------------------------------------------------------
E-----------------------------------------------------------------------
    T         T         T        T           T       T      x8
e----------------------------------------I-------------------I
B----------------------------------------I-------------------I
G--17p10h13--17p10h13--17p9h12--17p9h12--I--16p8h11-16p8h11--I
D----------------------------------------I-------------------I
A----------------------------------------I-------------------I
E----------------------------------------I-------------------I

       T       T       x8  T       T      x8  T         T      x8
e--I-------------------I-------------------I--------------------I
B--I-------------------I-------------------I--------------------I
G--I--16p9h12-16p9h12--I--10p8h11-16p8h11--I--16p9h12--16p8h11--I
D--I-------------------I-------------------I--------------------I
A--I-------------------I-------------------I--------------------I
E--I-------------------I-------------------I--------------------I

e-------------------------
B-------------------------
G--16p9\------------------
D-------------------------
A-------------------------
E----------0\-----0h12p0--





Comments


Popular Van Halen tabs & chords
Jump 3 Bass Tabs
Sunday Afternoon In The Park Bass Tabs
When Its Love Chords
Ain't Talkin Bout Love 2 Drum Tabs
Feel Your Love Tabs
Good Enough Tabs
Light Up The Sky 1 Tabs
Panama 1 Tabs
Tattoo Intro Tabs
You Really Got Me 1 Tabs


Song lyrics



↑ Back to top | Tablatures and chords are parodies/interpretations of the original songs. You may use it for private study, scholarship, research or language learning purposes only
© 2014 AZChords.com Contact us | Privacy policy | DMCA | Add/correct tabs | Request tabs | Top 50 tabs