» » »

Van Halen, Big Bad Bill (Is Sweet William Now) Bass tabs (ver.1)

Artists:  A B C D E F G H I J K L M N O P Q R S T U V W X Y Z # 

Big Bad Bill (Is Sweet William Now) Bass tabs (ver.1)

Van Halen Tabs
 Rating:
4/5 (4 votes)
Big Bad Bill (Is Sweet William Now) lessons Tabs too difficult? Try these video lessons and learn fast
                BIG BAD BILL (IS SWEET WILLIAM NOW) – Van Halen


Tuning: Standard (from low to high: E, A, D, G)

  0:00
   E   Q Q   Q Q   Q Q   Q Q   Q Q   Q Q   Q Q   E.S E E   Q Q   E E E E   Q E E   Q Q   Q E E
G|-r-|-----|-----|-----|-----|-----|-----|-----|---------|-----|---------|-------|-----|-------|
D|-e-|-3---|-5---|-3---|---5-|-3---|-----|-3---|-3-------|-----|---------|---3-4-|-5---|-3-----|
A|-s-|---5-|---3-|---3-|-3---|---5-|---3-|---3-|---------|---7-|-7-4-----|-------|---5-|---3-4-|
E|-t-|-----|-----|-----|-----|-----|-3---|-----|---0-3-4-|-5---|-----5-4-|-6-----|-----|-------|

                                0:21
   Q Q   Q Q   Q Q   Q Q   Q Q   Q Q   Q Q   Q Q   E E E E   Q Q   Q Q   Q Q   Q Q   Q Q   Q Q
G|-----|-----|-----|-----|-----|-----|-----|-----|---------|-----|-----|-----|-----|-----|-----|
D|-----|-----|---5-|-3---|-5---|-3---|-----|---7-|-7-4-----|-----|---5-|-3---|-----|-3---|-----|
A|-5---|---5-|-3---|---5-|---3-|---3-|---7-|-5---|-----5---|---5-|-3---|---5-|---3-|---3-|---7-|
E|---5-|-3---|-----|-----|-----|-----|-5---|-----|-------5-|-3---|-----|-----|-3---|-----|-5---|

                                                                               0:48
   Q Q   E E E E   Q Q   E E E E   Q Q   E E Q   Q Q   Q Q   E E E E   H   H    Q Q   Q Q   Q Q
G|-----|---------|-----|---------|-----|-5-----|-----|-----|---------|---|----|-----|-----|-----|
D|---7-|-7-4-----|-----|-5-3-----|-----|---5---|-5---|-5---|-5-3-----|---|----|-3---|---5-|-3---|
A|-5---|-----5---|---5-|-----5-4-|-3-2-|-----3-|---5-|---5-|-----5-4-|-3/|-15-|---3-|-3---|---5-|
E|-----|-------5-|-3---|---------|-----|-------|-----|-----|---------|---|----|-----|-----|-----|

                                                                                            1:08
   Q Q   Q Q   E E E E   Q E E   Q Q   Q E E   Q Q   Q E E   Q Q   Q Q   E E E E   Q Q   H   Q Q
G|-----|-----|---------|-------|-----|-------|-----|-------|-----|-----|---------|---r-|-r-|-----|
D|-5---|-3---|-3-4-5-6-|-7-----|-----|---3-4-|-5---|-3-----|-----|-----|-5-3-2---|---e-|-e-|-3---|
A|---3-|---3-|---------|---7-4-|---7-|-------|---5-|---3-4-|-5---|---5-|-------5-|-3-s-|-s-|---3-|
E|-----|-----|---------|-------|-5---|-6-----|-----|-------|---5-|-3---|---------|---t-|-t-|-----|


   Q Q   Q Q   Q Q   Q Q   E E E E   Q Q   E E E E   Q E E   Q Q   Q E E   Q Q   Q Q   Q Q   Q Q
G|-----|-----|-----|-----|---------|-----|---------|-------|-----|-------|-----|-----|-----|-----|
D|---5-|-3---|-----|-3---|-3-------|-----|---------|---3-4-|-5---|-3-----|-----|-----|---5-|-3---|
A|-3---|---5-|---3-|---3-|---------|---7-|-7-4-----|-------|---5-|---3-4-|-5---|---5-|-3---|---5-|
E|-----|-----|-3---|-----|---2-3-4-|-5---|-----5-4-|-6-----|-----|-------|---5-|-3---|-----|-----|

        1:27
   Q Q   Q Q   Q Q   Q Q   Q Q   Q Q   E E E E   Q E E   Q E E   Q E E   Q Q   Q E E   Q Q   Q Q
G|-----|-----|-----|-----|-----|-----|---------|-------|-------|-------|-----|-------|-----|-----|
D|-5---|-3---|---5-|-3---|-5---|-3---|-3-4-5-6-|-7-----|-------|---3-4-|-5---|-3-----|-----|-----|
A|---3-|---3-|-3---|---5-|---3-|---3-|---------|---7-4-|---7---|-------|---5-|---3-4-|-5---|---5-|
E|-----|-----|-----|-----|-----|-----|---------|-------|-5---5-|-6-----|-----|-------|---5-|-3---|

                      1:45
   E E E E   Q Q   H   Q Q   Q Q   Q Q   Q Q   Q Q   E E E E   Q Q   E E E E   Q E E   Q Q
G|---------|---r-|-r-|-----|-----|-----|-----|-----|---------|-----|---------|-------|-----|
D|-5-3-2---|---e-|-e-|-3---|---5-|-3---|-----|-3---|-3-------|-----|---------|---3-4-|-5---|
A|-------5-|-3-s-|-s-|---3-|-3---|---5-|---3-|---3-|---------|---7-|-7-4-----|-------|---5-|
E|---------|---t-|-t-|-----|-----|-----|-3---|-----|---2-3-4-|-5---|-----5-4-|-6-----|-----|

                                        2:06
   Q E E   Q Q   Q Q   Q Q   Q Q   Q Q   Q Q   Q Q   Q Q   Q Q   Q Q   E E E E   Q E E   Q E E
G|-------|-----|-----|-----|-----|-----|-----|-----|-----|-----|-----|---------|-------|-------|
D|-3-----|-----|-----|---5-|-3---|-5---|-3---|---5-|-3---|-5---|-3---|-3-4-5-6-|-7-----|-------|
A|---3-4-|-5---|---5-|-3---|---5-|---3-|---3-|-3---|---5-|---3-|---3-|---------|---7-4-|---7---|
E|-------|---5-|-3---|-----|-----|-----|-----|-----|-----|-----|-----|---------|-------|-5---5-|


   Q E E   Q Q   Q E E   Q Q   Q Q   Q Q   Q E E   Q Q   Q Q   Q Q   Q E E   E E E E   Q Q   Q Q
G|-------|-----|-------|-----|-----|-----|-------|-----|-----|-----|-------|---------|-----|---r-|
D|---3-4-|-5---|-3-----|-----|-----|---5-|-3-----|-----|-----|---5-|-3-----|---------|-----|---e-|
A|-------|---5-|---3-4-|-5---|---5-|-3---|---7-6-|-5---|---5-|-3---|---7-6-|-5-3-----|---5-|-3-s-|
E|-6-----|-----|-------|---5-|-3---|-----|-------|---5-|-3---|-----|-------|-----5-4-|-3---|---t-|

  2:32
   S S E E E   E E E E   S S E E E   S S S E.E + H + H
G|-r---------|---------|-r---------|-----------|---|---||
D|-e-3-3-----|---------|-e---------|---0-2-3---|---|---||
A|-s-----6-6-|-5-5-4-4-|-s---0-1-2-|-3---------|---|---||
E|-t---------|---------|-t-4-------|---------1-|(1)|(1)||

Enjoy!!!

| /  slide up           W = whole note
| \  slide down         H = half note              H. = dotted half note
| h  hammer-on          Q = quarter note           E. = dotted quarter note
| p  pull-off           E = eighth note            E. = dotted eighth note
| ~  vibrato            S = sixteenth note         S. = dotted sixteenth note
| +  harmonic
| x  Mute note
            
Submit corrections

comments powered by Disqus
↑ Back to top | Van Halen Bass for Big Bad Bill (Is Sweet William Now). Lyrics for acoustic guitar and electric guitar. Tablatures and chords are parodies/interpretations of the original songs. You may use it for private study, scholarship, research or language learning purposes only