>
 >
Atomic Punk

Atomic Punk Bass Tabs

Van Halen - Atomic Punk chords, tabs, tablatures, lyrics

Guitar lessons | Add/correct | Request | Top 50 tabs Artists:  A B C D E F G H I J K L M N O P Q R S T U V W X Y Z 0-9

Atomic Punk Bass Tabs – Van Halen

CD, Sheet music, Poster

Do you like Atomic Punk? Share with your friends now
Bass TabsTabsTabs v2Tabs v3
---------------------------------------------------------------------------------------------------
ATOMIC PUNK  Van Halen
---------------------------------------------------------------------------------------------------


Tuning: half-step down (from low to high: Eb, Ab, Db, Gb)

Intro
              e e e e e e e e 4x  q e e e e e e   e e e e q q   q e e e e e e   e e e e q q
G|--------||-------------------||---------------|-------------|---------------|-------------|
D|-12-bar-||*-----------------*||-----------0-0-|-0-0-0-0---0-|-----------0-0-|-0-0-0-0-0---|
A|--rest--||*-2-2-2-2-2-2-2-2-*||---------------|---------2---|---------------|-----------2-|
E|--------||-------------------||-0-0-0-0-0-----|-------------|-0-0-0-0-0-----|-------------|

   q e q e e e   e e e e q q   q e q e e e   e e e e q q
G|-------------|-------------|-------------|-------------|
D|---------0-0-|-0-0-0-0---0-|---------0-0-|-0-0-0-0-0---|
A|-------------|---------2---|-------------|-----------2-|
E|-0-0-0-0-----|-------------|-0-0-0-0-----|-------------|

Verse 1
     e e e e e e e e   e e e e e e e e + e e e e e e e e   e e e e e e e e + e e e e e e e e
G||------------------|-----------------|-----------------|-----------------|-----------------|
D||*-0-0-0-0-0-0-0-0-|-0-0-0-0-------0-|(0)0-0-0-0-0-0-0-|-0-0-0-0---------|-------------0-0-|
A||*-----------------|---------3-2-0---|-----------------|---------3-2-0---|-----------------|
E||------------------|-----------------|-----------------|---------------0|(0)0-0-0-0-0-----|

   e e e e q q   e e e e e e e e   e e e e q q
G|-------------|-----------------|--------------||
D|-0-0-0-0---0-|-------------0-0-|-0-0-0-0-0---*||
A|---------2---|-----------------|-----------2-*||
E|-------------|-0-0-0-0-0-0-----|--------------||

Chorus
   e e e e e e e e   e e e e e e e e   e e e e e e e e   e e e e e e q   e e e e q e e   q e e h
G|-----------------|-----------------|-----------------|---------------|-----r---r---r-|-r---r-r-|
D|-----------------|-----------------|-----------------|---------------|-----e---e---e-|-e---e-e-|
A|-----7-------7---|-----7-------5h7-|-----7-------7---|-----7---------|-----s---s---s-|-s---s-s-|
E|-0-0---0-0-0---0-|-0-0---0-0-0-----|-0-0---0-0-0---0-|-0-0---0-0-0-5-|-7-7-t-7-t-7-t-|-t-7-t-t-|

   q e e e e e e   e e e e q q   q e e e e e e   e e e e q q   q e q e e e   e e e e q q
G|---------------|-------------|---------------|-------------|-------------|-------------|
D|-----------0-0-|-0-0-0-0---0-|-----------0-0-|-0-0-0-0-0---|---------0-0-|-0-0-0-0---0-|
A|---------------|---------2---|---------------|-----------2-|-------------|---------2---|
E|-0-0-0-0-0-----|-------------|-0-0-0-0-0-----|-------------|-0-0-0-0-----|-------------|

   q e q e e e  e e e e q q
G|-------------|-------------|
D|---------0-0-|-0-0-0-0-0---|
A|-------------|-----------2-|
E|-0-0-0-0-----|-------------|

Verse 2
   e e e e e e e e   e e e e e e e e + e e e e e e e e   e e q  e e e e + e e e e e e e e
G|-----------------|-----------------|-----------------|----------------|-----------------|
D|-0-0-0-0-0-0-0-0-|-0-0-0-0-------0-|(0)0-0-0-0-0-0-0-|-0-0------------|-------------0-0-|
A|-----------------|---------3-2-0---|-----------------|----/12\3-2-0---|-----------------|
E|-----------------|-----------------|-----------------|--------------0|(0)0-0-0-0-0-----|

   e e e e q q   e e e e e e e e   e e e e q q   e e e e e e e e   e e e e e e e e +
G|-------------|-----------------|-------------|-----------------|-----------------|
D|-0-0-0-0---0-|-------------0-0-|-0-0-0-0-0---|-0-0-0-0-0-0-0-0-|-0-0-0-0-------0-|
A|---------2---|-----------------|-----------2-|-----------------|---------3-2-0---|
E|-------------|-0-0-0-0-0-0-----|-------------|-----------------|-----------------|

   e e e e e e e e   e e e e e e e e + e e e e e e e e   e e e e q q   e e e e e e e e 
G|-----------------|-----------------|-----------------|-------------|-----------------|
D|(0)0-0-0-0-0-0-0-|-0-0-0-0---------|-------------0-0-|-0-0-0-0---0-|-------------0-0-|
A|-----------------|---------3-2-0---|-----------------|---------2---|-----------------|
E|-----------------|---------------0|(0)0-0-0-0-0-----|-------------|-0-0-0-0-0-0-----|

   e e e e q q
G|-------------|
D|-0-0-0-0-0---|
A|-----------2-|
E|-------------|

Chorus
   e e e e e e e e   e e e e e e e e   e e e e e e e e   e e e e e e q   e e e e q e e   q e e q q
G|-----------------|-----------------|-----------------|---------------|-----r---r---r-|-r---r-r---|
D|-----------------|-----------------|-----------------|---------------|-----e---e---e-|-e---e-e---|
A|-----7-------7---|-----7-------5h7-|-----7-------7---|-----7---------|-----s---s---s-|-s---s-s---|
E|-0-0---0-0-0---0-|-0-0---0-0-0-----|-0-0---0-0-0---0-|-0-0---0-0-0-5-|-7-7-t-7-t-7-t-|-t-7-t-t-7\|

Guitar Solo
   q e q e q + e q e q q   q e q e q + e Q q q   q e e e e q + e e e e q q   q e e e e q +
G|-----------|---7-------|-----------|---------|-------------|-------------|-------------|
D|-----------|-----------|-----------|---------|-------------|-------------|-------------|
A|---7-----5-|(5)--5---5-|---7-----5-|(5)--5---|---7---7---5-|(5)5-5-5---5-|---7---7---5-|
E|-0---0-0---|-------7---|-0---0-0---|---7b--7-|-0---0---0---|---------7---|-0---0---0---|

   e  Q   q q     q e q e e e + e e e e e e q     e e e q e e e + e e e e q q   e e e q e e e +
G|------------||--------------|----------------||---------------|-------------|---------------|
D|------------||*-------------|---------------*||---------------|-------------|---------------|
A|(5)/15\-5---||*---7-----7---|-----7-7-----5-*||-----7-----7---|-----7---5---|-----7-----7---|
E|----------7-||--0---0-0---0-|(0)0-----7-7----||-0-0---0-0---0-|(0)0---0---7-|-0-0---0-0---0-|

   e e e e q q     e e e e q e e   q e e h  4x         h q q    q e e e e e e   e e e e q q
G|-------------||------r---r---r-|-r---r-r--||-------|-r-r----|---------------|-------------|
D|-------------||*-----e---e---e-|-e---e-e-*||-7-bar-|-e-e----|-----------0-0-|-0-0-0-0---0-|
A|-----7-------||*-----s---s---s-|-s---s-s-*||--rest-|-s-s----|---------------|---------2---|
E|(0)0---0-5-6-||--7-7-t-7-t-7-t-|-t-7-t-t--||-------|-t-t-15\|-0-0-0-0-0-----|-------------|

   q e e e e e e   e e e e q q   q e q e e e   e e e e q q   q e q e e e   e e e e q q
G|---------------|-------------|-------------|-------------|-------------|-------------|
D|-----------0-0-|-0-0-0-0-0---|---------0-0-|-0-0-0-0---0-|---------0-0-|-0-0-0-0-0---|
A|---------------|-----------2-|-------------|---------2---|-------------|-----------2-|
E|-0-0-0-0-0-----|-------------|-0-0-0-0-----|-------------|-0-0-0-0-----|-------------|

Verse 3
   e e e e e e e e   e e e e e e e e + e e e e e e e e   e e e e e e e e + e e e e e e e e
G|-----------------|-----------------|-----------------|-----------------|-----------------|
D|-0-0-0-0-0-0-0-0-|-0-0-0-0-------0-|(0)0-0-0-0-0-0-0-|-0-0-0-0---------|-------------0-0-|
A|-----------------|---------3-2-0---|-----------------|---------3-2-0---|-----------------|
E|-----------------|-----------------|-----------------|---------------0|(0)0-0-0-0-0-----|

   e e e e q q   e e e e e e e e   e e e e q q   e e e e e e e e   e e e e e e e e +
G|-------------|-----------------|-------------|-----------------|-----------------|
D|-0-0-0-0---0-|-------------0-0-|-0-0-0-0-0---|-0-0-0-0-0-0-0-0-|-0-0-0-0-------0-|
A|---------2---|-----------------|-----------2-|-----------------|---------3-2-0---|
E|-------------|-0-0-0-0-0-0-----|-------------|-----------------|-----------------|

   e e e e e e e e   e e e e e e e e + e e e e e e e e   e Q  q q   e e e e e e e e   e e e e q q
G|---------7-------|-9---------------|-----------------|----------|-----------------|-------------|
D|(0)0-0-0---0-0-0-|---0-0-0---------|-------------0-0-|-0------0-|-------------0-0-|-0-0-0-0-0---|
A|-----------------|---------3-2-0---|-----------------|--/12\2---|-----------------|-----------2-|
E|-----------------|---------------0|(0)0-0-0-0-0-----|----------|-0-0-0-0-0-0-----|-------------|

Outro                              let ring
   e e e e e e e e   e e e e e e e e   e e e e e e e e   e e e e e e e e   e e e e e e e e
G|-----------------|-------------9-9-|-----------------|---------------9-|-----------------|
D|-----------------|-------------9-9-|-----------------|---------------9-|-----------------|
A|-----7-------7---|-----7-------7-7-|-------------7---|---------------7-|-----7-------7---|
E|-0-0---0-0-0---0-|-0-0---0-0-0-----|-0-0-0-0-0-0---0-|-0-0-0-0-0-0-0---|-0-0---0-0-0---0-|

   e e q e e e e   e e e e e e e e   e e e e q q    e e e e q e e   q e e h free time q e e h
G|-------------9-|-----------------|--------------|-----r---r---r-|-r---r-r-|---|---|-----r-r-||
D|-------------9-|-----------------|--------------|-----e---e---e-|-e---e-e-|---|---|-----e-e-||
A|-----7-------7-|-----------------|--------------|-----s---s---s-|-s---s-s-|---|---|-----s-s-||
E|-0-0---0-0-0---|-0-0-0-0-0-0-0-0-|-0-0-0-0-7-12\|-7-7-t-7-t-7-r-|-t-7-t-t-|-1-|(1)|(1)0-t-t-||

Enjoy!!!

| /  slide up     s=sixteenth note S=dotted sixteenth note
| \  slide down   e=eighth note    E=dotted eighth note
| h  hammer-on    q=quarter note   Q=dotted quarter note
| p  pull-off     h=half note      H=dotted half note
| ~  vibrato      w=whole note
| +  harmonic
| x  Mute note
===================================================================================================





Comments


Popular Van Halen tabs & chords
Blood And Fire Bass Tabs
And The Cradle Will Rock.. Chords
Amsterdam 1 Tabs
Could This Be Magic 1 Tabs
Hang Em High Tabs
Josephina Tabs
Love Walks In Tabs
On Fire 1 Tabs
Wild Thing Live Tabs
Dreams Ukulele


Song lyrics



↑ Back to top | Tablatures and chords are parodies/interpretations of the original songs. You may use it for private study, scholarship, research or language learning purposes only
© 2014 AZChords.com Contact us | Privacy policy | DMCA | Add/correct tabs | Request tabs | Top 50 tabs