>
 >
316 2

316 2 Guitar Tabs

Van Halen - 316 2 chords, tabs, tablatures, lyrics

Guitar lessons | Add/correct | Request | Top 50 tabs Artists:  A B C D E F G H I J K L M N O P Q R S T U V W X Y Z 0-9

316 2 Guitar Tabs – Van Halen

CD, Sheet music, Poster

Do you like 316 2? Share with your friends now
TabsTabs v2Tabs v3Tabs v4

316
As recorded by Van Halen





 

 

Gtr I (E A D G B E) - 'Untitled'


  Moderately Slow  Q=79(8=s8)
         A         D     E A               D     E A
 4/4
  Gtr I
           |-3-|                   |-3-|                   |-3-|
  H    E E E E E   E E a E E +E  E E E E   E E a E E +E  E E E E
|----------------|-----------------------|-----------------------|
|--------------2-|-3---3s5-2-(2)-------2-|-3---3s5-2-(2)-------2-|
|------------2---|-2---2s4-2-(2)-----2---|-2---2s4-2-(2)-----2---|
|----------2-----|-4---4s6-2-(2)---2-----|-4---4s6-2-(2)---2-----|
|--------0-------|---0-----------0-------|---0-----------0-------|
|----------------|-----------------------|-----------------------|


  D    E A               D   A E                   C#D/F#
                 |-3-|                 |-3-|                 |-3-|
  Q  a E E +E  E E E E   E E e E +E  E E E E   E E e E +E  E E E E
|----------------------|---------------------|----------------------|
|-3--3s5-2-(2)-------2-|-3---2-0-(0)-------0-|-0---2----------------|
|-2--2s4-2-(2)-----2---|-4---2-1-(1)-----1---|-1---1-2-(2)-----2----|
|-4--4s6-2-(2)---2-----|-2---2-2-(2)---2-----|-2---2-0-(0)---0------|
|--------------0-------|---0---------0-------|---0------------------|
|----------------------|---------------------|-------2-(2)-2-----2--|


    G5        A               D    E A               D     A E
    |-3-| |-3-|       |-3-|                  |-3-|   |-3-|           |-3-|
  a E E E E E E +E  E E E E   Q  a E E +E  E E E E   Q S S e E +E  E E E E
|---------------------------|----------------------|-----------------------|
|-------------------------2-|-3--3s5-2-(2)-------2-|-3-2h3p2-0-(0)-------0-|
|-------0-----2-(2)-----2---|-2--2s4-2-(2)-----2---|-4-2-----1-(1)-----1---|
|-----0-------2-(2)---2-----|-4--4s6-2-(2)---2-----|-2-2h4p2-2-(2)---2-----|
|-------------0-(0)-0-------|--------------0-------|---------------0-------|
|-2s3-----2-0---------------|----------------------|-----------------------|


      C#D/F#              G5        A               D     E A
                |-3-|     |-3-| |-3-|       |-3-|                   |-3-|
  E E e E +E  E E E E   a E E E E E E +E  E E E E   E E a E E +E  E E E E
|---------------------|---------------------------|------------------------|
|-0---2---------------|-------------------------2-|-3---3s5-2-(2)-------2--|
|-1---1-2-(2)-----2---|-------0-----2-(2)-----2---|-2---2s4-2-(2)-----2----|
|-2---2-0-(0)---0-----|-----0-------2-(2)---2-----|-4---4s6-2-(2)---2------|
|---0-----------------|-------------0-(0)-0-------|---0-----------0--------|
|-------2-(2)-2-----2-|-2s3-----2-0---------------|------------------------|


  D   A E                   C#D/F#              G5        A
                |-3-|                 |-3-|     |-3-| |-3-|       |-3-|
  E E e E +E  E E E E   E E e E +E  E E E E   a E E E E E E +E  E E E E
|---------------------|---------------------|---------------------------|
|-3---2-0-(0)-------0-|-0---2---------------|-------------------------2-|
|-4---2-1-(1)-----1---|-1---1-2-(2)-----2---|-------0-----2-(2)-----2---|
|-2---2-2-(2)---2-----|-2---2-0-(0)---0-----|-----0-------2-(2)---2-----|
|---0---------0-------|---0-----------------|-------------0-(0)-0-------|
|---------------------|-------2-(2)-2-----2-|-2s3-----2-0---------------|


  D     E A       N.C.
                                           ~~~~~~~~         ~
                              |-3--|
  E E a E E +E  E e E   +Q   +E  E E E E e E   +H     E E e E
|---------------------|----------------------|----------------|
|-3---3s5-2-(2)-------|----------------------|----------------|
|-2---2s4-2-(2)---0-0-|-(0)--(0)---------5-5-|-(5)--------5-5-|
|-4---4s6-2-(2)---2-2-|-(2)--(2)---------4-4-|-(4)--------3-3-|
|---0-----------0-----|----------0-0-0-0-----|--------0-0-----|
|---------------------|----------------------|----------------|


                  A               D     E A       N.C.
   ~~~                                                                     ~
        |----3----|       |-3-|                               |-3--|
  +E  E E      E  E +E  E E E E   E E a E E +E  E e E   +Q   +E  E E E E e E
|-------------------------------|---------------------|-----------------------|
|-----------------------------2-|-3---3s5-2-(2)-------|-----------------------|
|-(5)-----------------------2---|-2---2s4-2-(2)---0-0-|-(0)--(0)---------5-5--|
|-(3)-------------2-(2)---2-----|-4---4s6-2-(2)---2-2-|-(2)--(2)---------4-4--|
|-----0-3b3.5==3r-0-(0)-0-------|---0-----------0-----|----------0-0-0-0------|
|-------------------------------|---------------------|-----------------------|


                                   A               D     E A
   ~~~         ~~~~~~~~
                         |----3----|       |-3-|                   |-3-|
  +H     E E e E   +E  E E      E  E +E  E E E E   E E a E E +E  E E E E
|----------------|-------------------------------|------------------------|
|----------------|-----------------------------2-|-3---3s5-2-(2)-------2--|
|-(5)--------5-5-|-(5)-----------------------2---|-2---2s4-2-(2)-----2----|
|-(4)--------3-3-|-(3)-------------2-(2)---2-----|-4---4s6-2-(2)---2------|
|--------0-0-----|-----0-3b3.5==3r-0-(0)-0-------|---0-----------0--------|
|----------------|-------------------------------|------------------------|


  D   A E                   C#D/F#
                |-3-|                 |-3-|
  E E e E +E  E E E E   E E e E +E  E E E E
|---------------------|---------------------|
|-3---2-0-(0)-------0-|-0---2---------------|
|-2---2-1-(1)-----1---|-1---1-2-(2)-----2---|
|-4---2-2-(2)---2-----|-2---2-0-(0)---0-----|
|---0---------0-------|---0-----------------|
|---------------------|-------2-(2)-2-----2-|


          H.=H
    G5        A5        Asus2
 3/4                   4/4
                        T     T     T     T     T     T
    |-3-| |-3--|
  a E E E E E  E +Q     E     E     E     E     E     Q.
|---------------------|-------------------------------0(12)---*|
|---------------------|-------------------0(12)---------------*|
|-------0-----^2-(2)--|-------2(14)-------------2(14)---------*|
|-----0-------^2-(2)--|-------------2(14)---------------------*|
|-------------^0-(0)--|-0(12)---------------------------------*|
|-2s3-----2-0---------|---------------------------------------*|




--------------------------------------------------------------------------------


Duration Legend
---------------
W - whole; H - half; Q - quarter; E - 8th; S - 16th; T - 32nd; X - 64th; a - acciaccatura
+ - note tied to previous; . - note dotted; .. - note double dotted
Uncapitalized letters represent notes that are staccato (1/2 duration)
Irregular groupings are notated above the duration line
Duration letters will always appear directly above the note/fret number it represents the
duration for.  Duration letters with no fret number below them represent rests.  Multi-
bar rests are notated in the form Wxn, where n is the number of bars to rest for.  Low
melody durations appear below the staff

Tablature Legend
----------------
 h   - hammer-on
 p   - pull-off
 b   - bend
 pb  - pre-bend
 r   - bend release (if no number after the r, then release immediately)
 /\  - slide into or out of (from/to "nowhere")
 s   - legato slide
 S   - shift slide
 - natural harmonic
[n]  - artificial harmonic
n(n) - tapped harmonic
 ~   - vibrato
 tr  - trill
 T   - tap
 TP  - trem. picking
 PM  - palm muting
\n/  - tremolo bar dip; n = amount to dip
 \n  - tremolo bar down
 n/  - tremolo bar up
/n\  - tremolo bar inverted dip
 =   - hold bend; also acts as connecting device for hammers/pulls
 <> - volume swell (louder/softer)
 x   - on rhythm slash represents muted slash
 o   - on rhythm slash represents single note slash

Misc Legend
-----------
 |  - bar
||  - double bar
||o - repeat start
o|| - repeat end
*|  - double bar (ending)
 :  - bar (freetime)
 $  - Segno
 &  - Coda
Tempo markers -  = BPM(8/16=s8/s16), where s8 = swing 8ths, s16 = swing 16ths



--------------------------------------------------------------------------------





Comments


Popular Van Halen tabs & chords
Jamies Cryin 2 Bass Tabs
Jump 3 Bass Tabs
Pretty Woman Bass Tabs
Feel Your Love Tonight Chords
And The Cradle Will Rock.. 1 Tabs
Could This Be Magic 1 Tabs
Finish What Ya Started 1 Tabs
Judgement Day 1 Tabs
Outta Love Again Tabs
Runnin With The Devil 5 Tabs


Song lyrics



↑ Back to top | Tablatures and chords are parodies/interpretations of the original songs. You may use it for private study, scholarship, research or language learning purposes only
© 2014 AZChords.com Contact us | Privacy policy | DMCA | Add/correct tabs | Request tabs | Top 50 tabs