» » »

Van Gogh, Zamisli Tabs (ver.2)

Artists:  A B C D E F G H I J K L M N O P Q R S T U V W X Y Z # 

Zamisli Tabs (ver.2)

Van Gogh Tabs
 Rating:
4/5 (4 votes)
Zamisli lessons Tabs too difficult? Try these video lessons and learn fast
1
                Uvod:
  Hm                               Hm
E|5h7---------5-------------------|--------------------10--12--14--|
H|--------------------------------|--------------------------------|
G|----------------7---------------|(7)-----------------------------|
D|--------------------------------|--------------------------------|
A|--------------------------------|--------------------------------|
E|--------------------------------|--------------------------------|
  Em                               Em
E|12----------10------------------|--------------------------------|
H|----------------12--------------|(12)-----------10h12------------|
G|--------------------------------|--------------------7h9p7-------|
D|--------------------------------|----------------------------9---|
A|--------------------------------|--------------------------------|
E|--------------------------------|--------------------------------|
  Hm                               Hm
E|--------------------------------|--------------------------------|
H|--------------------------------|--------------------------------|
G|----------------------------7---|------------------------7h9-9---|
D|7h9-----------------------------|--------------------------------|
A|--------------------------------|--------------------------------|
E|--------------------------------|--------------------------------|
  Em                               Em
E|--------------------------------|--------------------------------|
H|--------------------------------|--------------------------------|
G|9b10-9------------------7h9-----|--------------------------------|
D|----------------------------7---|9-------------------------------|
A|--------------------------------|--------------------------------|
E|--------------------------------|--------------------------------|

  Strofa:
       Hm
Nekako zbunjeno
                 Fism
Cekamo dane da odletimo sto pre
     Hm    
Tamo gde stize se kasnije
    Fism
Gde neko ceka na nas

  Refren:
G      A    D
Ako ti jave nekad
G       A    D
Da vise nema me
G      A    D
Ako ti jave nekad
G     D    G       D
Mozda mene ni bilo nije
G A     Hm
Zamisli me

  Solo:
  Hm                               Hm
E|7-------7-------7-------7-------|7-------5-------5-------5-------|\
H|--------------------------------|--------------------------------||
G|--------------------------------|--------------------------------||
D|--------------------------------|--------------------------------||
A|--------------------------------|--------------------------------||
E|--------------------------------|--------------------------------||
  Hm                               Hm                               |
E|9-------9-------9-------9-------|9-------7-------7-------5-h-6---||
H|--------------------------------|--------------------------------||
G|--------------------------------|--------------------------------||
D|--------------------------------|--------------------------------||
A|--------------------------------|--------------------------------||
E|--------------------------------|--------------------------------|\
  Hm                               Hm                                >2X
E|7-------7-------7-------7-------|7-------7-------7-------5-h-6---|/
H|--------------------------------|--------------------------------||
G|--------------------------------|--------------------------------||
D|--------------------------------|--------------------------------||
A|--------------------------------|--------------------------------||
E|--------------------------------|--------------------------------||
  Hm                               Hm                               |
E|7-------7-------7-------7-------|7-------7-------7-------5-h-6---||
H|--------------------------------|--------------------------------||
G|--------------------------------|--------------------------------||
D|--------------------------------|--------------------------------||
A|--------------------------------|--------------------------------||
E|--------------------------------|--------------------------------|/

  Prelaz:
Hm
En-den-di-ni-sava-raka-ti-ni
Sava-raka-tika-taka-elem-belem-buf
En-den-di-ni-sava-raka-ti-ni
Sava-raka-tika-taka-truf 

Nekako zbunjeno
Ljuljamo klatno zivota zadnji put
Koje ko sneg na toplom dlanu
Topi nas zauvek 

  Korisceni akordi:
Hm  -X24432
Em  -022000
Fism-244222
G   -320033
A   -X02220
D   -XX0232
            
Submit corrections

comments powered by Disqus
↑ Back to top | Van Gogh Tabs for Zamisli. Lyrics for acoustic guitar and electric guitar. 1 Tablatures and chords are parodies/interpretations of the original songs. You may use it for private study, scholarship, research or language learning purposes only