>
 >
Teska Ljubav

Teska Ljubav Guitar Tabs

Van Gogh - Teska Ljubav chords, tabs, tablatures, lyrics

Guitar lessons | Add/correct | Request | Top 50 tabs Artists:  A B C D E F G H I J K L M N O P Q R S T U V W X Y Z 0-9

Teska Ljubav Guitar Tabs – Van Gogh

CD, Sheet music, Poster

Do you like Teska Ljubav? Share with your friends now
Tabs
Van Gogh / Teska Ljubav:    
  
credits: Boris Zivkovic   (walkaway)

Am 
Nijedna tajna bolje čuvana nije 
Asus4 
od one koju svako samo nagađa 
Am 
znam tvoje ime znam tvoju kožu 
AaddF#    AaddG 
znam gde lomljivo je 
Am               Asus4 
ali ne znam kako   živeti sa željom 
Am                     Fmaj7 
Šta dati iz sebe teškoj navici 
Fmaj7addF    Fmaj7addG  AaddF#    "E fraza"     <-ovaj red (vidi dole) 
ako ne ode    sad,      ako ne ode sad 

G# A#        H    C#          G#   A#  G#    A# 
     Molitva, tako jaki stisak    ljubavi 
G# A#      H       C#        G# A  F#     F#   Am Asus4...AaddF# AddG 
   odlazim, tebi se nikad ne&#263;u   vratiti 

Am 
Kako daleko bi trebalo oti&#263;i 
Asus4                          Am      AaddF#  AaddG 
 da bi izgubio nazad do ku&#263;e put, do ku&#263;e put 
Am 
Od ovog grada ove velike duše 
Asus4                   F#  A 
malo ko &#263;e imati pravi klju&#269; 
              A fraza 
ako ne ode sad 

Am  AmaddH   C      D           Am H   Am  H     
   Molitva,    tako jaki stisak   ljubavi 
Am  H       C  D              Am  H   Am     H  .....C 
   odlazim, tebi se nikad ne&#263;u    vratiti 

Am 
Nijedna tajna bolje &#269;uvana nije 
Asus4 
od one koju svako samo naga&#273;a 
Am 
znam tvoje ime znam tvoju kožu 
AaddF#    AaddG 
znam gde lomljivo je 
Am 
Sada je kasno opet videti sjaj 
Asus4 
nikada teži nije bio kraj 
AAm                     Fmaj7 
Šta dati iz sebe teškoj navici 
Fmaj7addF    Fmaj7addG  AaddF#    "E fraza" 
ako ne ode    sad,      ako ne ode sad... 

F Fraza:
E--------------3--1-0h1p0------- 
H--------1----------------1----- 
G------2------------------------ 
D----3------3------------------- 
A------------------------------- 
E------------------------------- 

E Fraza
E------------------------------- 
H-----------3--1--0h1p0--------- 
G------1----------------0------- 
D----2-------------------------- 
A------------------------------- 
E--0-----0---------------------- 

AaddF# i AddG  bi trebalo da bude oznaka za A akord (uhvatiti ovaj Am) sa u 
basu dodatim F# ili G tonom, u pesmi svirati ovako nekako   (nap: bas gitara 
svira tu F# ili G): 
E------------------------------- 
H------------------------------- 
G--------2---------2------------ 
D-----2----------2--2----------- 
A------------------------------- 
E--2-----------3---------------- 

ovaj red: 
E---------------------------------------------------------------------------- 
H-----------------------------------------------------------3--1-0h1p0------- 
G-------2------2-------2--------2--------2-----2-------1----------------0---- 
D-----3------3-------3--------3--------2-----2-------2----------------------- 
A---------------------------------------------------------------------------- 
E--1-------1-------3--------3--------2------2------0-----0------------------- 

refren:   (nisu napisani ta&#269;ni nazivi akorada, ve&#263; samo na koji malo li&#269;i..., a 
i tablatura je otprilike, treba doraditi) 
  Am          H      C       D        Am      H   Am 
E------0------0------0------------------------------------------------------- 
H------1------1------1------------------------------------------------------- 
G--2---2------2------2--------4---------------2--2--------------------------- 
D--2---2--0---0----0-0---0----0---------------0--2--------------------------- 
A--0---0--2---2----3-3---5----5---------------2--0--------------------------- 
E----------------------------------------------------------------------------





Comments


Popular Van Gogh tabs & chords
Disem Chords
Da Li Zna Tabs
Da Li Zna 1 Tabs
Glas Tabs
Kiselina Tabs
Neko Te Ima Nocas Tabs
Polje Snova 1 Tabs
Put Tabs
Tragovi Proslosti 1 Tabs
Zemlja Cuda Tabs


Song lyrics



↑ Back to top | Tablatures and chords are parodies/interpretations of the original songs. You may use it for private study, scholarship, research or language learning purposes only
© 2014 AZChords.com Contact us | Privacy policy | DMCA | Add/correct tabs | Request tabs | Top 50 tabs