» » »

Sreca Tabs (ver.2)

Artists:  A B C D E F G H I J K L M N O P Q R S T U V W X Y Z # 

Sreca Tabs (ver.2)

Van Gogh
Rating:
0/5 (0 votes)

Hard to play? Try these video lessons and learn fast.
                Uvod:
E|----------------|----------------|----------------|----------------|
B|----------5-----|----------------|-b-b-b-b--------|-----------6----|
G|----------------|-7--------------|4-5-4-5-4-------|------5---------|
D|----------------|----------------|----------------|-7--------------|
A|0---------------|----------------|----------------|----------------|
E|----------------|----------------|----------------|----------------|


  Strofa:
  E5               D5               C#5+             C5
E|----------------|----------------|----------------|----------------|
B|----------------|----------------|----------------|----------------|
G|--------9-------|------7---------|------------6---|----------5-----|
D|-----------9----|-----------7----|--------7-------|-------5-----5--|
A|7---------------|5---------------|4---------------|3---------------|
E|----------------|----------------|----------------|----------------|


  Refren:
  E5               D5               C#5+             C5
E|----------------|----------------|----------------|----------------|
B|----------------|----------------|----------------|----------------|
G|----------------|----------------|----------------|----------------|
D|9----9------x---|7-7----7-7-7-7-7|7----7------x---|5-5----5-5-5-5-5|
A|7----7------x---|5-5----5-5-5-5-5|4----4------x---|3-3----3-3-3-3-3|
E|----------------|----------------|----------------|----------------|


  Korisceni akordi:
E5    - x799xx
D5    - x577xx
C#5+  - x476xx
C5    - x355xx


Avion, spreman za let u buducnost ceka
Moze samo par njih i to pozeljnih
Danimo stojimo u redu, tri po dva
I niko ne prica
Niko ne sme mnogo da prica
Sreca - njihova laz
Krivi misle - dalje je bolje
Krivi misle - iz koze dok moze
Ovo je slika svega, da, sto ne mogu da shvatim
Ovo je cena koju necu nikom da platim
Sreca - kakva laz
Sreca - prevara za nas

Ona ne voli
Ni tebe ni mene
Ona ne voli
Dovoljno ni sebe

Sad sam siguran u to sto zelim
Sasvim sam siguran - ona nas vara
Ona prodaje nas za gomilu para
Sreca
Nista ne brini
Mi smo tu, na korak od sna
Ti i ja
Ti i ja...
            
Hard to play? Try these video lessons and learn fast. | Correct




comments powered by Disqus
↑ Back to top | Tablatures and chords are parodies/interpretations of the original songs. You may use it for private study, scholarship, research or language learning purposes only