» » »

Van Gogh, Sreca Tabs (ver.1)

Artists:  A B C D E F G H I J K L M N O P Q R S T U V W X Y Z # 

Sreca Tabs (ver.1)

Van Gogh Tabs
 Rating:
4/5 (4 votes)
Sreca lessons Tabs too difficult? Try these video lessons and learn fast
                Van Gogh : Sreca



Intro
E|----------------------------|
A|-0-----0------0-------2h3---|
D|-----------------9~~--------|
G|----9-----7~~-------------0-|
H|----------------------------|
E|----------------------------|

Strofe:
E|-0-------------------------|
A|-7---7--5---5--4-----3-----|
D|---9------7------2-----2---|
G|-------------------0-----0-|
H|---------------------------|
E|---------------------------|

Avion, spreman za let u buducnost ceka,
moze samo par njih i to pozeljnih.
Danima stojimo u redu, tri po dva,
i niko ne prica, niko ne sme mnogo da prica -
sreca... njihova laz....
Krivi misle dalje je bolje,
krivi misle iz koze dok moze.
Ovo je slika svega da sto ne mogu da shvatim.
Ovo je cena koju necu nikom da platim...
Sreca... kakva laz... Sreca ? Prevara za nas !

Ref:
   E          D          Cis        C
E|-0-0-0-0--|----------|----------|---------|
A|-7-7-7-7--|-5-5-5-5--|-4-4-4-4--|-3-3-3-3-|
D|-9-9-9-9--|-7-7-7-7--|-6-6-6-6--|-5-5-5-5-|
G|-9-9-9-9--|-7-7-7-7--|-6-6-6-6--|-5-5-5-5-|
H|----------|----------|----------|---------|
E|----------|----------|----------|---------|

Ona ne voli, ni mene ni tebe,
ona ne voli dovoljno ni sebe.

Sada ide intro rif, pa opet refren....

Sad sam siguran, u to sto zelim.
Sasvim sam siguran, ona nas vara.
Ona prodaje nas za gomilu para,
Sreca...nista ne brini, mi smo tu
na korak od sna, ti i ja.... ti i ja...

Opet refren i the End.
        
 BASS



Na svaku 'prvu' bas okida ton 'A' sve do dela kada prvi 
put kaze 'sreca...njihova laz'. Onda ide :

E|-----5-7-----5-----5---5-----|
A|-7-7-----5-5---4-4---3---3-5-|
D|-----------------------------|
G|-----------------------------|

Refren:
E|---------------------------------------------|
A|-7--7--7---5--5--5-5---4--4--4---3--3--3-3-5-|
D|---------------------------------------------|
G|---------------------------------------------|

To su te dve stvari u pesmici ...
            
Submit corrections

comments powered by Disqus
↑ Back to top | Van Gogh Tabs for Sreca. Lyrics for acoustic guitar and electric guitar. Tablatures and chords are parodies/interpretations of the original songs. You may use it for private study, scholarship, research or language learning purposes only