» » »

Mama Tabs (ver.1)

Artists:  A B C D E F G H I J K L M N O P Q R S T U V W X Y Z # 

Mama Tabs (ver.1)

Van Gogh
Rating:
0/5 (0 votes)

Hard to play? Try these video lessons and learn fast.
                Mama - LP Strast 

Van Gogh

Tabbs by    Boris Zivkovic   (walkaway)


Ovo je glavni deo:                      ponekad ovako: 
  A          F            G            Am     F          G 
------------------------------------|---------------------------------- 
------------------------------------|----5----------------------------- 
------------------------------------|----5---2----2---2---4---4---4---- 
------------------------------------|--7-----3----3---3---5---5---5---- 
--7---7---7---3---3---3---5---5---5-|--7-----3----3---3---5---5---5---- 
--5---5---5---1---1---1---3---3---3-|--5-----1----1---1---3---3---3---- 
 PM all 
  

 "druga" gitara 
  
    C 
--------0----------------- 
-----------1-------------- 
-0-h-2-------------------- 
-------------------------- 
-------------------------- 
-------------------------- 
 

Ove se pnavlja kroz pesmu!!

Ako iko ima lyrics za ovu pesmu, psaljite ih na:


Hvala
            
Hard to play? Try these video lessons and learn fast. | Correct




comments powered by Disqus
↑ Back to top | Tablatures and chords are parodies/interpretations of the original songs. You may use it for private study, scholarship, research or language learning purposes only