» » »

Buldozer Tabs (ver.2)

Artists:  A B C D E F G H I J K L M N O P Q R S T U V W X Y Z # 

Buldozer Tabs (ver.2)

Van Gogh
Rating:
0/5 (0 votes)

Hard to play? Try these video lessons and learn fast.
                Tema:
E|----------------|----------------|----------------|----------------|
H|----------------|------------4---|(4)-------------|----------------|
G|5-------5-------|----3-h-5---3---|(3)---------5---|(5)-------------|
D|5-------5-------|----3-h-5-------|------------5---|(5)-------------|
A|3-------3-------|----------------|----------------|----------------|
E|----------------|----------------|----------------|----------------|

  Strofa:
E|----------------|----------------|
H|----------------|----------------|
G|----------------|----------------|
D|----------------|------------0---|
A|----------------|2---3---4-------|
E|3---2---1---0---|----------------|

  Refren:
E|----------------|----------------|----------------|----------------|\
H|--------4-------|4---------------|----------------|----------------||
G|--------5---5---|5---5-----------|----------------|----------------||
D|5-----------5---|----5-----------|----------------|----------------||3x
A|3---------------|------------6---|(6)-6-------3---|(3)-3-----------||
E|----------------|------------4---|(4)-4-------1---|(1)-1-----------|/

E|----------------|----------------|----------------|----------------|
H|----------------|----------------|----------------|----------------|
G|----------------|----------------|----------------|----------------|
D|----------------|----------------|----------------|----------------|
A|5-------5-------|5---5---5---5---|(5)-------------|----------------|
E|3-------3-------|3---3---3---3---|(3)-------------|----------------|

  Kraj:
E|----------------|----------------|
H|----------------|----------------|
G|----------------|----------------|
D|----------------|----------------|
A|----7p5h7p5-----|----5---7-------|
E|0-----------7---|3/5-------------|
            
Hard to play? Try these video lessons and learn fast. | Correct




comments powered by Disqus
↑ Back to top | Tablatures and chords are parodies/interpretations of the original songs. You may use it for private study, scholarship, research or language learning purposes only