» » »

Vangelis, I'll Find My Way Home Tabs (ver.1)

Artists:  A B C D E F G H I J K L M N O P Q R S T U V W X Y Z # 

I'll Find My Way Home Tabs (ver.1)

Vangelis Tabs
Rating:
0/5 (0 votes)
Hard to play? Try these video lessons and learn fast.
                Jon & Vangelis


Released: 1981
Producer: Vangelis


MELODY:
   You ask me where to begin
E|---------------------------------|
B|---------------------------------|
G|--0---0--0----5---5---7--0-------|
D|---------------------------------|
A|---------------------------------|
E|---------------------------------|

   Am I so lost in my sin
E|---------------------------------|
B|----5--6--5---------7------------|
G|-7------------5------------------|
D|-----------------7---------------|
A|---------------------------------|
E|---------------------------------|

   But if my spirit is lost
E|---------------------------------|
B|-----5--6---8--8--8--------------|
G|--7-------------------5----------|
D|---------------------------------|
A|---------------------------------|
E|---------------------------------|

   How will I find what is near
E|---------------------------------|
B|------5---6--5-------------------|
G|--7---------------5------7-------|
D|----------------------7----------|
A|---------------------------------|
E|---------------------------------|

   One world we all come from
E|---------------------------------|
B|------5----6---5-----------------|
G|--7----------------7----5--------|
D|---------------------------------|
A|---------------------------------|
E|---------------------------------|

   One world we melt into one
E|---------------------7---8-------|
B|------5----6---5---5-------------|
G|--7------------------------------|
D|---------------------------------|
A|---------------------------------|
E|---------------------------------|

   Just hold my hand and we're there
E|--8----8---8---8---7----5--------|
B|------------------------------8--|
G|---------------------------------|
D|---------------------------------|
A|---------------------------------|
E|---------------------------------|

   Somehow we're going somewhere
E|---------------------------------|
B|---6--6----6----6--5-------------|
G|-----------------------7---5-----|
D|---------------------------------|
A|---------------------------------|
E|---------------------------------|

   But if my spirit is strong
E|---------------------------------|
B|-----5--6---5--5-----------------|
G|--7---------------7----5---------|
D|---------------------------------|
A|---------------------------------|
E|---------------------------------|

   I know it can't be long
E|-----------------7----8----------|
B|----5---6---5--------------------|
G|-7-------------------------------|
D|---------------------------------|
A|---------------------------------|
E|---------------------------------|



KEYBOARD SOLO:
E|---------------------------------|
B|-----------------5-6-5-----------|
G|-0-0-0-5-7-0---7-------5---7-----|
D|-------------------------7-------|
A|---------------------------------|
E|---------------------------------|

E|---------------------------------|
B|------------------5-6-5----------|
G|--0-0-0-5-7-0---7-------5---7----|
D|--------------------------7------|
A|---------------------------------|
E|---------------------------------|

E|-----------------------7-8-------|
B|---5-6-8-5-------5-6-5-----------|
G|-7---------5---7-----------------|
D|---------------------------------|
A|---------------------------------|
E|---------------------------------|

E|-8-8-8-8-7-5---------------------|
B|-------------8---6-6-6-6-6-5-----|
G|-----------------------------7-5-|
D|---------------------------------|
A|---------------------------------|
E|---------------------------------|



CHORDS/LYRICS:

You ask me where to begin
Am I so lost in my sin
You ask me where did I fall
I'll say I can't tell you when.

But if my spirit is lost
How will I find what is near
Don't question I'm not alone
Somehow I'll find my way home.

[G]          [C]        [G]         [F]  [G]
My sun shall rise in the east
             [C]        [G]         [F]  [G]
So shall my heart be at peace
             [C]        [G]         [F]  [G]
And if you're asking me when
             [C]        [G]         [F]  [G]
I'll say it starts at the end.

             [Em]       [Am]        [F]  [G]
You know your will to be free
             [C]        [G]         [F]  [G]
Is matched with love secretly
             [Em]       [Am]        [F]  [G]
And talk will alter your prayer
             [C]        [G]         [F]  [G]
Somehow you'll find you are there.

Your friend is close by your side
And speaks in far ancient tongue
A seasons wish will come true
All seasons begin with you.

             [Em]       [Am]        [F]  [G]
One world we all come from
             [Em]       [Am]        [Am] [Am]
One world we melt into one
             [F]        [C]         [F]  [G]
Just hold my hand and we're there
             [G]        [C]         [F]  [G]
Somehow we're going somewhere
             [G]        [C]         [F]  [G]
Somehow we're going somewhere.

You ask me where to begin
Am I so lost in my sin
You ask me where did I fall
I'll say I can't tell you when.

But if my spirit is strong
I know it can't be long
No questions I'm not alone
Somehow I'll find my way home.
Somehow I'll find my way home.
Somehow I'll find my way home.
Somehow I'll find my way home.
            

comments powered by Disqus
↑ Back to top | Vangelis Tabs for I'll Find My Way Home. Lyrics for acoustic guitar and electric guitar. Tablatures and chords are parodies/interpretations of the original songs. You may use it for private study, scholarship, research or language learning purposes only