» » »

Conquest Of Paradise Tabs (ver.2)

Artists:  A B C D E F G H I J K L M N O P Q R S T U V W X Y Z # 

Conquest Of Paradise Tabs (ver.2)

Vangelis
Rating:
5/5 (4 votes)

Hard to play? Try these video lessons and learn fast.
                (Intro)
  ************************************************************
  !              Conquest of Paradise - Vangelis             !
  ************************************************************

 Eey
 this is my version of the song. I hope u guys ( and chicks :p) can use it.
 Latr


e--------------------------|-----------------------|
b---1----0-----------------|-0---------------------|
g-----------2-----1---2----|-----1-----------------|
d--------------------------|-------2-----------2---|
a---0----------------------|-----------------------|
e--------------------------|-0-----------0---------|

e--------------------------|-----------------------|
b---1----0-----------------|---0-------------------|
g-----------2------1----2--|----------------0------|
d--------------------------|-----------------------|
a--------------------------|-----------------------|
e---0----------------------|---3-------3-----------|

e--0-----------------------|-----------------------|
b-------3--1-----0-----1---|---3---0---------------|
g--------------------------|-----------0--------0--|
d--------------------------|-----------------------|
a--3-----------------------|-----------------------|
e--------------------------|---3------------3------|

e--------------------------|------------|-----------|
b--------------------------|------------|-----------|
g-------0--2-----0---------|------------|-----------|
d---3----------------3-----|--2---------|-2-------2-|
a--------------------------|------------|-----------|
e---1----------------------|--0---0---0-|-0---0-----|
            
Hard to play? Try these video lessons and learn fast. | Correct




comments powered by Disqus
↑ Back to top | Tablatures and chords are parodies/interpretations of the original songs. You may use it for private study, scholarship, research or language learning purposes only