» » »

Chariots Of Fire Tabs (ver.1)

Artists:  A B C D E F G H I J K L M N O P Q R S T U V W X Y Z # 

Chariots Of Fire Tabs (ver.1)

Vangelis
Rating:
3/5 (3 votes)

Hard to play? Try these video lessons and learn fast.
                Corrected tab by Mitch R. by ear

e|--------------------------------------------------------------------------------------|
B|------9-11-9----------------9-11-9--------------9-11-9--------------------------------|
G|---11----------10--------11------------------11----------10-----10-11-10--------------|
D|11--------------------11------------------11-----------------------------11-11--------|
A|--------------------------------------------------------------------------------------|
E|--------------------------------------------------------------------------------------|

e|9-8------8----------------9-8------8--------9-8------8--------------------------------|
B|----11-9-----9-11---7-9-------11-9--------------11-9-----9-11---7-9---10-11-10--------|
G|-------------------------------------------------------------------------------11-11--|
D|--------------------------------------------------------------------------------------|
A|--------------------------------------------------------------------------------------|
E|--------------------------------------------------------------------------------------|
            
Hard to play? Try these video lessons and learn fast. | Correct




comments powered by Disqus
↑ Back to top | Tablatures and chords are parodies/interpretations of the original songs. You may use it for private study, scholarship, research or language learning purposes only