» » »

Vanessa Hudgens, Say Ok Tabs (ver.4)

Artists:  A B C D E F G H I J K L M N O P Q R S T U V W X Y Z # 

Say Ok Tabs (ver.4)

Vanessa Hudgens Tabs
 Rating:
3.7/5 (6 votes)
Say Ok lessons Tabs too difficult? Try these video lessons and learn fast
                e|----12------------10---------------|
B|------13------------12-------------|
G|--------14--[x4]------12--[x4]-----|  x4
D|-----------------------------------|
A|-----------------------------------|
E|-----------------------------------|
 
...
You are fine
You are sweet
But I'm still a bit naive with my heart
When you're close I don't breathe
I can't find the words to speak
I feel sparks
 
 
e|----13------------12------------10---------------|
B|------15------------13------------12-------------|
G|--------14--[x2]------14--[x2]------11--[x4]-----|
D|-------------------------------------------------|
A|-------------------------------------------------|
E|-------------------------------------------------|
 
(guitar 2)
e|----------------------------------------------|
B|----------------------------------------------|
G|--------5--[x1]------5--[x1]------4--[x1]-----|
D|------7------------5------------5-------------|
A|----5------------3------------2---------------|
E|----------------------------------------------|

No I don't wanna start seeing you
If I can't be your only one
So tell me
 
 
(listen to the song and figure out the strumming pattern for the chords, it's pretty easy)
 
 
      Am       C        G        Em
e|----0--------0--------3--------0-|
B|----1--------1--------3--------0-|
G|----2--------0--------0--------0-|
D|----2--------2--------0--------2-|
A|----0--------3--------2--------2-|
E|----x--------0--------3--------0-|
 
                 Am
when it's not alright
               C
When it's not ok
          G
Will you try to make me feel better?
               Am
Will you say alright? (say alright)
              C
Will you say ok? (Say ok)
          G
Will you stick with me through whatever?
        Am
Or run away
                                C
(Say that it's gonna be alright. That it's gonna be ok)
    G
Say Ok.



e|----12------------10---------------|
B|------13------------12-------------|
G|--------14--[x4]------12--[x4]-----|  x4
D|-----------------------------------|
A|-----------------------------------|
E|-----------------------------------|
 
When you call I don't know 
if I should pick up the phone 
every time
I'm not like all my friends 
who keep calling up the boys, 
I'm so shy
 
 
e|----13------------12------------10---------------|
B|------15------------13------------12-------------|
G|--------14--[x2]------14--[x2]------11--[x4]-----|
D|-------------------------------------------------|
A|-------------------------------------------------|
E|-------------------------------------------------|
 
(guitar 2)
e|----------------------------------------------|
B|----------------------------------------------|
G|--------5--[x1]------5--[x1]------4--[x1]-----|
D|------7------------5------------5-------------|
A|----5------------3------------2---------------|
E|----------------------------------------------|

But I don't wanna be into you
If you don't treat me the right way
See I can only start seeing you
If you can make my heart feel safe (feel safe)


                 Am
when it's not alright
               C
When it's not ok
          G
Will you try to make me feel better?
               Am
Will you say alright? (say alright)
              C
Will you say ok? (Say ok)
          G
Will you stick with me through whatever?
        Am
Or run away
                                C
(Say that it's gonna be alright. That it's gonna be ok)
    G
Say Ok.

Am
Let me know if it's gonna be you
Am
Boy, you've got some things to prove
Em
Let me know that you'll keep me safe
Em
I don't want you to run away so
Am
Let me know that you'll call on time
Am
Let me know that you won't be shy
Em
Will you wipe my tears away

Will you hold me closer


                 Am
when it's not alright
               C
When it's not ok
          G
Will you try to make me feel better?
               Am
Will you say alright? (say alright)
              C
Will you say ok? (Say ok)
          G
Will you stick with me through whatever?
        Am
Or run away
                                C
(Say that it's gonna be alright. That it's gonna be ok)
    G
Say Ok.

(Don't run away, don't run away)
Am                              C                      G
(Say that it's gonna be alright. That it's gonna be ok, don't run away)

Will you say OK
Am                              C                      G
(Say that it's gonna be alright. That it's gonna be ok, don't run away)

Will you say OK 
            
Submit corrections

comments powered by Disqus
↑ Back to top | Vanessa Hudgens Tabs for Say Ok. Lyrics for acoustic guitar and electric guitar. Tablatures and chords are parodies/interpretations of the original songs. You may use it for private study, scholarship, research or language learning purposes only