>
 >
Who's To Say

Who's To Say Bass Tabs

Vanessa Carlton - Who's To Say chords, tabs, tablatures, lyrics

Guitar lessons | Add/correct | Request | Top 50 tabs Artists:  A B C D E F G H I J K L M N O P Q R S T U V W X Y Z 0-9

Who's To Say Bass Tabs – Vanessa Carlton

CD, Sheet music, Poster

Do you like Who's To Say? Share with your friends now
Bass TabsChords
Artist - Vanessa Carlton
Song - Who's to Say
Album - Harmonium
Track - 2
Bassist - Arion Salazar

G-----------------|
D-----------------|
A-----------------|
E-5-5-5-5-5-5-5-5-|

G-----------------|
D-----------------|
A-----------------|
E-0-0-0-0-0-0-0-0-|

G-----------------|
D-----------------|
A-4-4-4-4-4-4-4-4-|
E-----------------|

G-----------------|
D-----------------|
A-2-2-2-2-2-2-2-2-|
E-----------------|

REPEAT ABOVE x4

Fifth time slight change
G-----------------|
D-----------------|
A-----------------|
E-5-5-5-5-5-5-5-5-|

G-----------------|
D-----------------|
A-----------------|
E-0-0-0-0-0-0-0-0-|

G-----------------|
D-------2-2-2-4-4-|
A-4-4-4-----------|
E-----------------|

G-----------------|
D-----------------|
A-2-2-2-2-2-2-2-2-|
E-----------------|

Back to First version
G-----------------|
D-----------------|
A-----------------|
E-5-5-5-5-5-5-5-5-|

G-----------------|
D-----------------|
A-----------------|
E-0-0-0-0-0-0-0-0-|

G-----------------|
D-----------------|
A-4-4-4-4-4-4-4-4-|
E-----------------|

G-----------------|
D-----------------|
A-2-2-2-2-2-2-2-2-|
E-----------------|

REPEAT ABOVE x5

Changes when Vanessa sings "Sometimes Family..."
G-------------------------|
D-------------------------|
A-------------7---77---7--|
E-5---55---5--------------|

G-------------------------|
D-------------------------|
A-4---44---4--2---22---2--|
E-------------------------|

G-------------------------|
D-------------------------|
A-------------7---77---7--|
E-5---55---5--------------|

G-------------------------|
D------------------2---4--|
A-4---44---4--2---2-------|
E-------------------------|

Chorus
G-------------------------|
D-------------------------|
A-------------------------|
E-5---55---57-0---00---0--|

G-------------------------|
D-------------------------|
A-4---44---4--2---22---2--|
E-------------------------|

G-------------------------|
D-------------------------|
A-------------------------|
E-5---55---57-0---00---0--|

G-------------------------|
D-------------------------|
A-4---44---4--2---22---2--|
E-------------------------|

G-------------------------|
D-------------------------|
A----------------------76-|
E-5---55---57-0---00------|

G-------------------------|
D-----------------------2-|
A-4---44---4--2---22---2--|
E-------------------------|

G-------------------------|
D-------------------------|
A----------------------76-|
E-5---55---57-0---00------|

G-------------------------|
D-------------------------|
A-4---44---4--2---22---2--|
E-------------------------|

"And you say we're too young..."
G---------------------------------|
D---------------------------------|
A---------------------------------|
E-5-5-5-5-5-5-5-5-7-7-7-7-7-7-7-7-|

G---------------------------------|
D---------------------------------|
A-----------------7-7-7-7-7-7-7-7-|
E-9-9-9-9-9-9-9-9-----------------|

G---------------------------------|
D---------------------------------|
A---------------------------------|
E-5-5-5-5-5-5-5-5-7-7-7-7-7-7-7-7-|

G---------------------------------|
D---------------------------------|
A-----------------7-7-7-7-7-7/9---|
E-9-9-9-9-9-9-9-9---------------9-|

G---------------------------------|
D---------------------------------|
A---------------7---------------9-|
E-5-5-5-5-5-5-5---7-7-7-7-7-7-7---|

G---------------------------------|
D---------------------------------|
A-----------------7-7-7-7-7-7-7-7-|
E-9-9-9-9-9-9-9-7-----------------|

G---------------------------------|
D---------------------------------|
A---------------------------------|
E-5-5-5-5-5-5-5-5-7-7-7-7-7-7-7-7-|

Quiet bit
G---------------------------------|
D-7~~~~~~~~~~~~~------------------|
A-----------------7~~~~~~~~~~~~~--|
E---------------------------------|

G---------------------------------|
D---------------------------------|
A-4~~~~~~~~~~~~~--2~~~~~~~~~~~~~--|
E---------------------------------|

Verse
G-----------------|
D-----------------|
A-----------------|
E-5-5-5-5-5-5-5-5-|

G-----------------|
D-----------------|
A-----------------|
E-0-0-0-0-0-0-0-0-|

G-----------------|
D-----------------|
A-4-4-4-4-4-4-4-4-|
E-----------------|

G-----------------|
D-----------------|
A-2-2-2-2-2-2-2-2-|
E-----------------|

REPEAT ABOVE x2

G-----------------|
D-----------------|
A-----------------|
E-5-5-5-5-5-5-5-5-|

G-----------------|
D-----------------|
A-----------------|
E-0-0-0-0-0-0-0-0-|

G-----------------|
D-------2-2-2-4-4-|
A-4-4-4-----------|
E-----------------|

G-----------------|
D-----------------|
A-2-2-2-2-2-2-2-2-|
E-----------------|

Chorus
G-------------------------|
D-------------------------|
A-------------------------|
E-5---55---57-0---00---0--|

G-------------------------|
D-------------------------|
A-4---44---4--2---22---2--|
E-------------------------|

G-------------------------|
D-------------------------|
A-------------------------|
E-5---55---57-0---00---0--|

G-------------------------|
D-------------------------|
A-4---44---4--2---22---2--|
E-------------------------|

G-------------------------|
D-------------------------|
A----------------------76-|
E-5---55---57-0---00------|

G-------------------------|
D-----------------------2-|
A-4---44---4--2---22---2--|
E-------------------------|

G-------------------------|
D-------------------------|
A----------------------76-|
E-5---55---57-0---00------|

G-------------------------|
D-------------------------|
A-4---44---4--2---22---2--|
E-------------------------|

"And you say we're too young..."
G---------------------------------|
D---------------------------------|
A---------------------------------|
E-5-5-5-5-5-5-5-5-7-7-7-7-7-7-7-7-|

G---------------------------------|
D---------------------------------|
A-----------------7-7-7-7-7-7-7-7-|
E-9-9-9-9-9-9-9-9-----------------|

G---------------------------------|
D---------------------------------|
A---------------------------------|
E-5-5-5-5-5-5-5-5-7-7-7-7-7-7-7-7-|

G---------------------------------|
D-------------------------6h7p6---|
A-----------------7-7-7-7-------7-|
E-9-9-9-9-9-9-9-9-----------------|

G---------------------------------|
D---------------------------------|
A---------------7---------------9-|
E-5-5-5-5-5-5-5---7-7-7-7-7-7-7---|

G---------------------------------|
D-------------------------6h7p6---|
A-----------------7-7-7-7-------7-|
E-9-9-9-9-9-9-9-7-----------------|

G---------------------------------|
D---------------------------------|
A---------------------------------|
E-5-5-5-5-5-5-5-5-7-7-7-7-7-7-7-7-|

Quiet bit
G---------------------------------|
D-7~~~~~~~~~~~~~------------------|
A-----------------7~~~~~~~~~~~~~--|
E---------------------------------|

G---------------------------------|
D---------------------------------|
A-4~~~~~~~~~~~~~--2~~~~~~~~~~~~~--|
E---------------------------------|





Comments


Popular Vanessa Carlton tabs & chords
A Thousand Miles 1 Bass Tabs
Annie Bass Tabs
A Thousand Miles 3 Chords
Fools Like Me Chords
More Than This Chords
Pretty Baby 1 Chords
All Is Well Tabs
Hands On Me Tabs
Fairweather Friend Ukulele
Ordinary Day Ukulele


Song lyrics



↑ Back to top | Tablatures and chords are parodies/interpretations of the original songs. You may use it for private study, scholarship, research or language learning purposes only
© 2014 AZChords.com Contact us | Privacy policy | DMCA | Add/correct tabs | Request tabs | Top 50 tabs