» » »

Vanessa Carlton, White Houses Bass tabs (ver.1)

Artists:  A B C D E F G H I J K L M N O P Q R S T U V W X Y Z # 

White Houses Bass tabs (ver.1)

Vanessa Carlton Tabs
 Rating:
4/5 (4 votes)
White Houses lessons Tabs too difficult? Try these video lessons and learn fast
1
                Artist - Vanessa Carlton
Song - White Houses
Album - Harmonium
Track - 1
Bassist - Arion Salazar

Just Piano the start with, begin when
Vanessa sings "Spinning empty bottles..."
G-----------------|
D-7---7---7---7---|
A-----------------|
E-----------------| x4

G-----------------|
D-----------------|
A-10--10--10--10--|
E-----------------| x4

Verse 1
G-----------------|
D-10--10--10--10--|
A-----------------|
E-----------------| x4

G-----------------|
D-9---9---9---9---|
A-----------------|
E-----------------| x4

G-----------------|
D-7---7---7---7---|
A-----------------|
E-----------------| x4

G-----------------|
D-----------------|
A-10--10--10--10--|
E-----------------| x4

Chorus
G-----------------|
D-----------------|
A-8--------12--10-|
E-----------------| x2

G-----------------|
D--------10-------|
A-8---------12-10-|
E-----------------| x1

Short Rest

Verse 2
G-----------------|
D-----------------|
A-3---3---3---3---|
E-----------------| x4

G-----------------|
D-----------------|
A-2---2---2---2---|
E-----------------| x4

G-----------------|
D-----------------|
A-----------------|
E-5---5---5---5---| x4

G-----------------|
D-----------------|
A-----------------|
E-3---3---3---3---| x4

Chorus
G-----------------|
D-----------------|
A-8--------12--10-|
E-----------------| x2

G-----------------|
D--------10-------|
A-8---------12-10-|
E-----------------| x1

G-----------------|
D-----------------|
A-8--------12--10-|
E-----------------| x2

G-----------------|
D--------10-------|
A-8---------12-10-|
E-----------------| x1

Bridge
G----------------------------|
D-/15--15--15-17-------------|
A----------------15--15--15--|
E----------------------------|

G-14--14--14---12----/16--17-|
D----------------------------|
A----------------------------|
E----------------------------|

G----------------------|
D----------------------|
A----------------------|
E-13--13--13--8--8--8--|

G--------------------------|
D--------------------------|
A-12--12--12--10h12--14-15-|
E--------------------------|

G----------------------|
D----------------------|
A----------------------|
E-13--13--13--8--8--8--|

G-------------------------|
D-------------------------|
A-12--12--12--10--10--10--|
E-------------------------|

G----------------------------|
D-/15--15--15-17-------------|
A----------------15--15--15--|
E----------------------------|

G-14--14--14---12~~~~~~~-----|
D----------------------------|
A----------------------------|
E----------------------------|

G------------|
D------------|
A-15~~~~~~---|
E------------|

Piano Solo (Wait a while, and then in)
G-------------------------|
D-------------------------|
A-10-10-10-10-10-10-10-10-|
E-------------------------| x2

G------------|
D------------|
A------------|
E-8~~~~~-----| x1

Quiet Part

Chorus (first time just piano)
G--------------------|
D--------------------|
A----------------23--|
E-1--------5---33----| x2

G------------------|
D------------------|
A----------3-------|
E-1-----------5--3-| x1

G--------------------|
D--------------------|
A----------------23--|
E-1--------5---33----| x2

G------------------|
D------------------|
A----------3-------|
E-1-----------5--3-| x1

G------------------|
D------------------|
A------------------|
E-1~~~~------------|
            
Submit corrections

comments powered by Disqus
↑ Back to top | Vanessa Carlton Bass for White Houses. Lyrics for acoustic guitar and electric guitar. 1 Tablatures and chords are parodies/interpretations of the original songs. You may use it for private study, scholarship, research or language learning purposes only