» » »

She Floats Bass tabs (ver.1)

Artists:  A B C D E F G H I J K L M N O P Q R S T U V W X Y Z # 

She Floats Bass tabs (ver.1)

Vanessa Carlton
Rating:
0/5 (0 votes)

Hard to play? Try these video lessons and learn fast.
                Artist - Vanessa Carlton
Song - She Floats
Album - Harmonium
Track - 10
Bassist - Arion Salazar

G-----7--9-7-|
D-7h9--------|
A------------|
E------------|

G-----------------|
D-5---4---3---2---|
A-----------------|
E-----------------|

G---------------------------------|
D---------------------------------|
A-3-3-3-3-5-5-5-5-7-7-7-7-7-7-7-7-|
E---------------------------------| x3

Rest

G-----7------|
D-7h9----9-7-|
A------------|
E------------|

G-----5h7---------|
D-5-------3-2-----|
A-----------------|
E-----------------|

G-7h9--7-----|
D--------9-7-|
A------------|
E------------|

G-----------------|
D-5---4---3---2---|
A-----------------|
E-----------------|

G---------------------------------|
D---------------------------------|
A-3-3-3-3-5-5-5-5-7-7-7-7-7-7-7-7-|
E---------------------------------| x3

G------------------------|
D------------------------|
A-3-------5-------7------|
E------------------------| x1

Rest

Not sure if this is bass. You can faintly hear it behind the piano.
If it is, play this with a LIGHT slap/pop technique.
Beware of the timing, it changes to 7/4

G----------------------------|
D-7h9-9--7--5---------7---9--|
A--------------5---7---------|
E----------------------------| x6

Rest

G---------------------------------|
D---------------------------------|
A-3-3-3-3-5-5-5-5-7-7-7-7-7-7-7-7-|
E---------------------------------| x6

G---------------------------------|
D-------------5-------------------|
A-3-3-3-3-5-5---5-7-7-7-7-7-7-7-7-|
E---------------------------------| x1

G------------------------|
D------------------------|
A-3-------5-------7------|
E------------------------| x1
            
Hard to play? Try these video lessons and learn fast. | Correct




comments powered by Disqus
↑ Back to top | Tablatures and chords are parodies/interpretations of the original songs. You may use it for private study, scholarship, research or language learning purposes only