» » »

Vanessa Carlton, Ordinary Day Bass tabs (ver.1)

Artists:  A B C D E F G H I J K L M N O P Q R S T U V W X Y Z # 

Ordinary Day Bass tabs (ver.1)

Vanessa Carlton Tabs
 Rating:
4/5 (4 votes)
Ordinary Day lessons Tabs too difficult? Try these video lessons and learn fast
                +++++++++++++++++++++++++++++++++
| Vanessa Carlton- Ordinary Day |
+++++++++++++++++++++++++++++++++

Tuning: EADG

Verse
"As he asked if I would come along..."
1.
G|--------------------------------------------------------------|
D|-2~--3~--5~--7~--2~--3~--5~---7-3-2~--3~--5~--7~--2~-3~-5~----|
A|--------------------------------------------------------------|
E|--------------------------------------------------------------|

Chorus
"Take my hand, live while you can..."
2.
G|----------------------------------------------------------------|
D|-------------------------------------------------------------5x-|
A|--------------0----------------0---------------0~---------------|
E|-0~--1~--3~-----1-0~--1~--3~-----1-0~--1~--3~------0~--1~--3----|

Outro
3.
G|--------------------------------|
D|-2~--3~--5~---7-3-2~--3~--5~----|
A|--------------------------------|
E|--------------------------------|

Verse
"And as he spoke, he spoke ordinary words..."
4.
G|---------------------------------------------------------------------|
D|-2~--3~--5~---7-3-2~--3~--5~---7-3-2~--3~--5~---7-3-2~--3~--5~---7-3-|
A|---------------------------------------------------------------------|
E|---------------------------------------------------------------------|

"And as I looked up into those eyes..."
5.
G|----------------------------------------------------------------|
D|----------------------------------------------------------------|
A|-------------0~---------------0---------------0~----------------|
E|-0~--1~--3~------0~--1~--3~-----1-0~--1~--3~------0~--1~--3~----|

Chorus
"Take my hand, live while you can..."
6.
G|---------------------------------------------------------------------------------|
D|------------------------------------------------------------------------------5x-|
A|--------------0----------------0---------------0~--------------0~----------------|
E|-0~--1~--3~-----1-0~--1~--3~-----1-0~--1~--3~------0~--1~--3~------0~--1~--33----|

Outro
7.
G|---------------------------------|
D|-----0~--2~--3~------0~--2~--3~--|
A|-3~--------------3~--------------|--x2
E|---------------------------------|

Bridge
"Please come with me, see what I see..."
8.
G|-------------------------------------------------------------------|
D|-------------------------------------------------------------------|
A|-3~--5~--/14~--15~---15~--17~--/20~--19~--15~--17~--14~--15--------|
E|-----------------------------------------------------------15-12-8-|

"Time will not flee..."
9.
G|-------------5-0---------------------------------|
D|-----------------2---------3~--2~----------------|
A|-3~--5~--2~--------3~--5~----------3~--5~--2~----|
E|-------------------------------------------------|

Verse
"Just a dream just an ordinary dream..."
10.
G|---------------------------------------------------------------------|
D|-2~--3~--5~---7-3-2~--3~--5~---7-3-2~--3~--5~---7-3-2~--3~--5----7-3-|
A|---------------------------------------------------------------------|
E|--------------------------------------------------------------3~-----|

"Did he ask if I would come along..."
11.
G|----------------------------------------------------------------|
D|----------------------------------------------------------------|
A|-------------0~---------------0---------------0~----------------|
E|-0~--1~--3~------0~--1~--3~-----1-0~--1~--3~------0~--1~--3~----|

Chorus
"Take my hand, live while you can..."
12.
G|-----------------------------------------------------------------------------------|
D|-----------------------------------------------------------------------------------|
A|--------------0----------------0---------------0~--------------0~--------------0~--|
E|-0~--1~--3~-----1-0~--1~--3~-----1-0~--1~--3~------0~--1~--3~------0~--1~--3~------|

"In the palm of my hand..."
13.
G|---------------------|
D|---------5~-5~-5~-5~-|
A|---------------------|
E|-0~--1~--------------|

Outro
14.
G|-------------------------------------------------------------------------------|
D|-----0~--2~--3~-2-0-----0~--2~-0-2-3~------0~--2~--3~-2-0-----0~--2----0-2-3~--|
A|-3~-----------------3~-----------------3~-----------------3~-------------------|
E|--------------------------------------------------------------------0~---------|

"Just a day just an ordinary day..."
15.
G|------------|
D|------------|
A|-3~---------|
E|------------|

Lyrics:


Just a day, just an ordinary day.
Just tryin to get by.
Just a boy, just an ordinary boy.
But he was looking to the sky.
And as he asked if I would come along
I started to realize
That everyday he finds just what he's looking for,
Like a shooting star he shines, he said.

Take my hand,
Live while you can
Don't you see your dreams lie right in the palm of your hand

And as he spoke, he spoke ordinary words
Although they did not feel
For I felt what I had not felt before
You'd swear those words could heal.
And as I looked up into those eyes
His vision borrows mine.
And to know he's no stranger,
For I feel I've held him for all of time.

Please come with me,
See what I see.
Touch the stars for time will not flee.
Time will not flee.
Can you see?

Just a dream, just an ordinary dream.
As I wake in bed
And the boy that had ordinary boy
Or was it all in my head?
Did he ask if I would come along
It all seemed so real.
But as I looked to the door,
I saw that boy standing there with a deal.

+++++++++++++++++++++++++++++++++
| RaiLeff                       |
+++++++++++++++++++++++++++++++++
            
Submit corrections

comments powered by Disqus
↑ Back to top | Vanessa Carlton Bass for Ordinary Day. Lyrics for acoustic guitar and electric guitar. Tablatures and chords are parodies/interpretations of the original songs. You may use it for private study, scholarship, research or language learning purposes only