» » »

Vanessa Carlton, Half A Week Before The Winter Bass tabs (ver.1)

Artists:  A B C D E F G H I J K L M N O P Q R S T U V W X Y Z # 

Half A Week Before The Winter Bass tabs (ver.1)

Vanessa Carlton Tabs
Rating:
0/5 (0 votes)
Half A Week Before The Winter lessons Tabs too difficult? Try these video lessons and learn fast
                Artist - Vanessa Carlton
Song - Half a Week Before the Winter
Album - Harmonium
Track - 7
Bassist - Arion Salazar

According to the album credits, there's no bass in this song
yet you can clearly something bass-like. It might be a keyboard
but here's the tab for if it were bass

G-------------------------|
D-------------------------|
A-4-----------------------|
E-------6-----5-----------| x4

G-------------------------|
D-------------------------|
A-12----------------------|
E-------12----9-----------| x3

G-------------|
D-------------|
A-12----------|
E-------12----|

G-------------------------|
D-------------------------|
A-4-----------------------|
E-------6-----5-----------| x4

G-------------------------|
D-------------------------|
A-12----------------------|
E-------12----9-----------| x3

G-------------------------|
D-------------------------|
A-12----------------------|
E-------12----0-----2-----| x1

Piano bit

G-----------|
D-----------|
A-----------|
E-0----2----| x3

G-------------------------|
D-------------------------|
A-4-----------------------|
E-------6-----5-----------| x4

Piano and Vocals

G-------------------------|
D-------------------------|
A-12----------------------|
E-------12----9-----------| x3

G-------------|
D-------------|
A-12----------|
E-------12----|

G-------------------------|
D-------------------------|
A-4-----------------------|
E-------6-----5-----------| x3

G-------------------------|
D-------------------------|
A-4-----------------------|
E-------5-----2-----------| x4
            

comments powered by Disqus
↑ Back to top | Vanessa Carlton Bass for Half A Week Before The Winter. Lyrics for acoustic guitar and electric guitar. Tablatures and chords are parodies/interpretations of the original songs. You may use it for private study, scholarship, research or language learning purposes only