» » »

Vanessa Carlton, All Is Well Tabs (ver.1)

Artists:  A B C D E F G H I J K L M N O P Q R S T U V W X Y Z # 

All Is Well Tabs (ver.1)

Vanessa Carlton Tabs
 Rating:
4/5 (4 votes)
All Is Well lessons Tabs too difficult? Try these video lessons and learn fast
                Tuning: Standard lowest-highest(EADGBe)
Intro/verse:                                        Play 2nd time only:
                                                         x2
e|-12h-13p-12h-13p-12\-8\-5-5h-7p-5\-4-(5h7h8h10)-|I-12----12---12---12---|
B|------------------------------------------------|I---10-9-10-9-10-7-10-6|
G|------------------------------------------------|I----------------------|
D|------------------------------------------------|I----------------------|
A|------------------------------------------------|I----------------------|
E|------------------------------------------------|I----------------------|

e|-12h-13p-12h-13p-12h-(12/-15\-13\-10\-8\-5-0)-|
B|----------------------------------------------|
G-----------------------------------------------|2nd time repeat above 
D|----------------------------------------------|instead...
A|----------------------------------------------|
E|----------------------------------------------|
 
Chorus: x2           
e|-7-8-10-8-7-----------------------------------|----------------|
B|-------------11-9~7~11-9~7~7-9-9-4------------|-7*--6*---------|
G|----------------------------------------------|----------------|
D|----------------------------------------------|----------------|
A|----------------------------------------------|----------------|
E|----------------------------------------------|----------------|
                                                 repeat intro/verse
PreBridge: x2
e|----------------------------------------------|----------------|
B|-9-8-9-8-7-6-7-6-7-6-5-6-5-6-8-7-6-7-6-7------|-9-7-6-9-7-6----|
G|----------------------------------------------|----------------|
D|----------------------------------------------|----------------|
A|----------------------------------------------|----------------|
E|----------------------------------------------|----------------|

Bridge: ///repeat///
e|---------------------------------------------|----------------------|
B|---------------------------------------------|----------------------|
G|---------------------------------------------|----------------------|
D|---------------------------------------------|----------------------|
A|-777555--------------------------------------|-777777-888888-999999-|
E|--------4-4-4-12-12-10-12-10-12-12-10-12-----|----------------------|

                         x2
e|-------------------|-9*-5*-4*-5*-------------|
B|-------------------|-------------------------|
G|-------------------|-------------------------|
D|-------------------|-------------------------|
A|-10-10-10-10-10-10-|-------------------------|
E|-------------------|-------------------------|




Ending:
Repeat intro/verse for ending 

|things in ()-play 1st time only
|/-slide up
|\-slide down
|~-vibrato
|*-let ring

This is my first ttab and I know it's definitely not completely accurate,
so corrections would be greatly appreciated! 
            
Submit corrections

comments powered by Disqus
↑ Back to top | Vanessa Carlton Tabs for All Is Well. Lyrics for acoustic guitar and electric guitar. Tablatures and chords are parodies/interpretations of the original songs. You may use it for private study, scholarship, research or language learning purposes only