» » »

Vanessa Carlton, Afterglow Bass tabs (ver.1)

Artists:  A B C D E F G H I J K L M N O P Q R S T U V W X Y Z # 

Afterglow Bass tabs (ver.1)

Vanessa Carlton Tabs
 Rating:
4/5 (4 votes)
Afterglow lessons Tabs too difficult? Try these video lessons and learn fast
                Artist - Vanessa Carlton
Song - Afterglow
Album - Harmonium
Track - 5
Bassist - Arion Salazar

This has to be one of the most beautiful songs ever written. Enjoy!

G-------------------------|
D-------------------------|
A-------------------------|
E-8-8-----5-5-----3-3-----|

G-------------------------|
D-------------------------|
A-------------------------|
E-8-8-----5-5-----3~~~----|

G-------------------------|
D-------------------------|
A-------------------------|
E-8-8-----5-5-----3-3-----|

G-----------------|
D-----------------|
A-----------------|
E-1-1-----1-1-----| x2

G-------------------------|
D-------------------------|
A-----8-7-----5-3---------|
E-8-8-----5-5-----1-1-5-3-|

G-------------------|
D---------10-10-----|
A-------------------|
E-8-8---------------|

G---------------------------|
D---------------------------|
A-----8-7-----5-3-5---------|
E-8-8-----5-5-------1-1-5-3-|


G---------------------------------|
D-5-5-5-5-4-4-4-4-3-3-3-3---------|
A-------------------------3-3-3-3-|
E---------------------------------|

G-------------6-------5-----------|
D-5-5-5-5-4-4---4-3-3---3-2-------|
A-----------------------------5-3-|
E---------------------------------|

G------------------|
D------------------|
A------------------|
E-5-5-----3-3------|

Short Rest

G----------------------------------|
D----------------------------------|
A----------------------------------|
E-5-5-----3-3-----1-1----01-1-3/7--|

G----------------------------------|
D----------------------------------|
A----------------3-----------------|
E-8-8-----5-5-----3-3-----3-3------|

G---------------------------------|
D---------------------------------|
A---------------------------------|
E-1-1-1-1-1-1-1-1-1-1-1-1-1-1-1-1-|

Short Rest

G-----------------------------------|
D-----------------------------------|
A----------------/8-8-----8--10--12-|
E-1-1-----1-1-----------------------|

G------------------------------|
D------------------------------|
A-----8-7-----5-3--------------|
E-8-8-----5-5------3-1-1-5-3-5-|


G------------------|
D------------------|
A------------------|
E-8-8-----8-8---35-|

G-----------------------------|
D-----------------------------|
A-----8-7-----5-3-5-----------|
E-8-8-----5-5-------1-1-5-3-5-|
            
Submit corrections

comments powered by Disqus
↑ Back to top | Vanessa Carlton Bass for Afterglow. Lyrics for acoustic guitar and electric guitar. Tablatures and chords are parodies/interpretations of the original songs. You may use it for private study, scholarship, research or language learning purposes only