>
 >
Its A B Movie

Its A B Movie Chords

Van Dyke Parks - Its A B Movie chords, tabs, tablatures, lyrics

Guitar lessons | Add/correct | Request | Top 50 tabs Artists:  A B C D E F G H I J K L M N O P Q R S T U V W X Y Z 0-9

Its A B Movie Chords – Van Dyke Parks

CD, Sheet music, Poster

Do you like Its A B Movie? Share with your friends now
ChordsUkulele
It's a B-Movie


E|--------------------------|
B|--------------------------|
G|----0---------------------|
D|-------4--0--3-----2------|
A|-3--------------4---------|
E|--------------------------|

E|--------------------------|
B|--------------------------|
G|---0---0---0---0----------|
D|-----4-------4------------|
A|-3-------3----------------|
E|--------------------------|

C5    -   Bb5   -
Watch yourself
      Ab5    -         G5   -
Don't fall off of the shelf
D5       -      G5     -    Ab5   -    G5 -
You must be the new boys in town
C5    -    Bb5   -
What's that sound?
-  A#5      -     G#5  -
Is someone movin' round?
Ab5       -       A5  -
Sit down for a spell
Bb5       -       B5 -
You don't look so well
               C5    -   Bb5   -
Wait a minute, I feel great
         Ab5     -         G5   -
You just leave yourself to fate
D5        -       G5     -     Ab5   -    G5 -
You might as well just hang around
C5   -   Bb5   -
It's too late
      Bb5   -   Ab5   -
We've got to operate
Ab5    -    A5    -
Just try to relax
Bb5     -  B5
It's a house of wax!

    C          F5  -  Eb5
Oh, I remember Frankenstein
        F5 -  Eb5     F
Shivers up my spine, wo-oh
C               F5  -  Eb5
I'm for getting out of here
           F5  -     Eb5       F
No need to shout, my dear, no-oh

C5   -   Bb5  -    Ab5   -       G5   -
Who will go to the cellar down below?
D5       -      G5     -     Ab5   -    G5 -
Trouble is a-bubblin' in the brew
                                C5    -    Bb5   -
And while you're down there Mr. Vincent Price
     Bb5   -       Ab5   -
Will give you good advice
Ab5        -        A5    -
He'll know what to do
Bb5       -         B5
You just tell him "Boo!"
C5        -     C#5    -       D5      -
He will put the voodoo in the stew
            G    -
I'm telling you!

Cm
It's like a movie
               Bb
It's a B-movie show
Cm
It's like a movie
               Bb
It's a B-movie show

E|-3-4--5-6--7-8--9-10--11-12--13--14---8-|
B|----------------------------------------|
G|----------------------------------------|
D|----------------------------------------|
A|----------------------------------------|
E|----------------------------------------|

C5   -   Bb5  -
This is weird
Ab5   -       G5   -
It's much worse than I feared
D5       -      G5     -     Ab5   -    G5 -
I'll close my eyes and make it disappear
C5   -   Bb5  -
This is strange
Bb5   -       Ab5   -
It ain't home on the range
Ab5    -    A5    -
You just tell St. Pete
Bb5     -  B5
That you got cold feet

C
There goes the sun
Here comes the night
     -               Bb
Somebody turn on the light
                      Ab
Somebody tell me that fate has been kind
G
You can't go out
Ab          -        G
You are out of your mind!

Cm
It's like a movie
               Bb
It's a B-movie show
Cm
It's like a movie
               Bb
It's a B-movie show
                                        C
E|-3-4--5-6--7-8--9-10--11-12--13--14-----|
B|--------------------------------------1-|
G|----------------------------------------|
D|--------------------------------------2-|
A|--------------------------------------3-|
E|----------------------------------------|
                           C
E|---------------------------|
B|-------------------------1-|
G|----0----------------------|
D|-------4--0--3-----2-----2-|
A|----------------4--------3-|
E|---------------------------|





Comments


Popular Van Dyke Parks tabs & chords
After The Ball Chords
City Of Lights Chords
Cutting Edge Chords
Worthless Chords
After The Ball Ukulele
City Of Lights Ukulele
Cutting Edge Ukulele
Its A B Movie Ukulele
Worthless Ukulele


Song lyrics



↑ Back to top | Tablatures and chords are parodies/interpretations of the original songs. You may use it for private study, scholarship, research or language learning purposes only
© 2014 AZChords.com Contact us | Privacy policy | DMCA | Add/correct tabs | Request tabs | Top 50 tabs