» » »

When I Say You I Mean Me Tabs (ver.1)

Artists:  A B C D E F G H I J K L M N O P Q R S T U V W X Y Z # 

When I Say You I Mean Me Tabs (ver.1)

Vandals
Rating:
0/5 (0 votes)

Hard to play? Try these video lessons and learn fast.
                                 When I Say You, I Mean Me - The Vandals


Standard Tuning: eBGDAE

This is a pretty easy song to play, even if you're just beginning to play guitar.

Key: pm = palm mute
     // = slide up

Intro

|--------------------------|
|--------------------------|
|--------------------------|
|--------------------------|
|--14--13--11-----9--7--2--|
|--12--11--9------7--5--0--|

|------------------|
|------------------|
|------------------|
|------------------|
|------------------|
|--12--11----5--7--|

|------------------------------------------------------------------------------------------|
|--17--------------------------------------------------------------------------------------|
|-----16-------13---16-13---11-9-/////-11-11-11-11-11-11-11-11-//-16-16-16-16-16-16-16-16--|
|--------14-16-----------------------------------------------------------------------------|
|------------------------------------------------------------------------------------------|
|------------------------------------------------------------------------------------------|

Verse

|------------------------------------------------------------------------|
|------------------------------------------------------------------------|
|------------------------------------------------------------------------|
|------------------------------------------------------------------------|
|--14--14-14-14-14--14--14-14-14-14----13--13-13-13-13--13--13-13-13-13--|
|--12--12-12-12-12--12--12-12-12-12----11--11-11-11-11--11--11-11-11-11--|
    pm .. .. .. ..   pm .. .. .. ..     pm .. .. .. ..   pm .. .. .. .. 

|----------------------------------------------------|
|----------------------------------------------------|
|----------------------------------------------------|
|----------------------------------------------------|
|--7--7-7-7-7--7--7-7-7-7----9--9-9-9-9--9--9-9-9-9--|
|--5--5-5-5-5--5--5-5-5-5----7--7-7-7-7--7--7-7-7-7--|
   pm . . . .  pm . . . .    pm . . . .  pm . . . . 

|--------------------------------|
|--------------------------------|
|--------------------------------|
|--------------------------------|
|==9-9-9-9-9-9-9-9-9-9-9-9-9-9-9-|
|--7-7-7-7-7-7-7-7-7-7-7-7-7-7-7-|         

Bridge

|-----------------------|
|-----------------------|
|-----------------------| x2
|-----------------------|
|--7-7-8-8-9-9-9-9-9-9--|
|--5-5-6-6-7-7-7-7-7-7--|

Solo

|-------------------------------------------------------------|
|--17------------------------17-------------------------------|
|------------16---18-16-18------16---------13---16-13---11-9--|
|-------14-------------------------14-16----------------------|
|-------------------------------------------------------------|
|-------------------------------------------------------------|

|------------------------------------------------------------------------------------------|
|------------------------------------------------------------------------------------------|
|------------------------------------------------------------------------------------------|
|--//-9-9-9-9-9-9-9-9-//-11-11-11-11--13-13-13-13--11-11-11-11--9-9-9-9--7-7-7-7--6-6-6-6--|
|------------------------------------------------------------------------------------------|
|------------------------------------------------------------------------------------------|

                                 |-----------------------------------|
                                 |-----------------------------------|
                                 |-----------------------------------|
Repeat first part of solo, then: |--9-9-9-9-9-9-9-9-9-9-9-9-9-9-9-9--|
                                 |-----------------------------------|
                                 |-----------------------------------|


Repeat the Bridge again, then finish with the riff from the intro.

To get the song down perfectly, I suggest listening to it and working from there.
            
Hard to play? Try these video lessons and learn fast. | Correct




comments powered by Disqus
↑ Back to top | Tablatures and chords are parodies/interpretations of the original songs. You may use it for private study, scholarship, research or language learning purposes only