» » »

Vandals, Wanna Be Manor Tabs (ver.1)

Artists:  A B C D E F G H I J K L M N O P Q R S T U V W X Y Z # 

Wanna Be Manor Tabs (ver.1)

Vandals Tabs
Rating:
0/5 (0 votes)
Wanna Be Manor lessons Tabs too difficult? Try these video lessons and learn fast
                Intro/Verse 
|---------------------------------------| 
|---------------------------------------| 
|-----------4-4-4-4--5-5-5-5------------| 
|--2-2-2-2--4-4-4-4--5-5-5-5--5-5-5-5---| 
|--2-2-2-2--2-2-2-2--3-3-3-3--5-5-5-5---| 
|--0-0-0-0--------------------3-3-3-3---| 

Second part of the verse 
|---------------------------------------------------------------| 
|---------------------------------------------------------------| 
|--4-4-4-4-4-4-4------------------------------------------------| 
|--4-4-4-4-4-4-4--7-7-7-7-7-7-7--5-5-5-5-5-5-5--4-4-4-4-4-4-4---| 
|--2-2-2-2-2-2-2--7-7-7-7-7-7-7--5-5-5-5-5-5-5--4-4-4-4-4-4-4---| 
|-----------------5-5-5-5-5-5-5--3-3-3-3-3-3-3--2-2-2-2-2-2-2---| 

After verse 
|--------------| 
|--------------| 
|--4--7--5-5---| Do this set three times. 
|--4--7--5-5---| 
|--2--5--3-3---| 
|--------------|
            
Submit corrections

comments powered by Disqus
↑ Back to top | Vandals Tabs for Wanna Be Manor. Lyrics for acoustic guitar and electric guitar. Tablatures and chords are parodies/interpretations of the original songs. You may use it for private study, scholarship, research or language learning purposes only