» » »

Vandals, Tastes Like Chicken Tabs (ver.1)

Artists:  A B C D E F G H I J K L M N O P Q R S T U V W X Y Z # 

Tastes Like Chicken Tabs (ver.1)

Vandals Tabs
Rating:
0/5 (0 votes)
Hard to play? Try these video lessons and learn fast.
                INTRO 
e|----------------------------| 
B|----------------------------| 
G|--------3-3-3---------5-5-5-| 
D|-5-5-5--3-3-3--3-3-3--3-3-3-| 
A|-5-5-5--1-1-1--3-3-3--3-3-3-| 
E|-3-3-3---------1-1-1--------| 

VERSE 
e|----------------------------------------------------| 
B|----------------------------------------------------| 
G|------8-8-8--3-3-3--5-5-5---------------------------| 
D|-5-5--8-8-8--3-3-3--5-5-5-End Riff----------5-8-5-5-| 
A|-5-5--6-6-6--1-1-1--3-3-3---------------------------| 
E|-3-3-------------------------------3-3-6-3----------| 

CHORUS 
e|-----------------------------------------------------| 
B|-----------------------------------------------------| 
G|--------7-7-7------------------------10-10-10--7-7-7-| 
D|-8-8-8--7-7-7--5-5-5-Last Bar-8-8-8--10-10-10--7-7-7-| 
A|-8-8-8--5-5-5--5-5-5----------8-8-8---8--8--8--5-5-5-| 
E|-6-6-6---------3-3-3----------6-6-6------------------|
            

comments powered by Disqus
↑ Back to top | Vandals Tabs for Tastes Like Chicken. Lyrics for acoustic guitar and electric guitar. Tablatures and chords are parodies/interpretations of the original songs. You may use it for private study, scholarship, research or language learning purposes only