» » »

Vandals, Stop Smiling Tabs (ver.1)

Artists:  A B C D E F G H I J K L M N O P Q R S T U V W X Y Z # 

Stop Smiling Tabs (ver.1)

Vandals Tabs
 Rating:
4/5 (4 votes)
Stop Smiling lessons Tabs too difficult? Try these video lessons and learn fast
1
                ^ = p.m. 

guitar 1 intro 1: 
e|--------------| 
B|--------------| 
G|--------------| 
D|--------------| 
A|--------------| 
E|-3-----4----3-| 

guitar 2 intro: 
e|-------------------------------------| 
B|-------------------------------------| 
G|-------------------------------------| 
D|-------------------------------------| 
A|-5--5-555--5--5-555--5--5-555-666666-| 
E|-3--3-333--3--3-333--3--3-333-444444-| 
^ ^ ^^^ ^ ^ ^^^ ^ ^ ^^^ ^^^^^^ 
guitar 1 intro 2/verse 3: 
e|----------------------------------------------------------------| 
B|-121212121212--9------------------------9-----------------------| 
G|-121212121212--9------------------------9-----------------------| 
D|-121212121212--9------------------------9-----------------------| 
A|-101010101010--7--10101010101010101010--7--10101010101010101010-| 
E-|------------------8-8-8-8-8-8-8-8-8-8------8-8-8-8-8-8-8-8-8-8-| 
^ ^ ^ ^ ^ ^ ^ ^ ^ ^ ^ ^ ^ ^ ^ ^ ^ ^ ^ ^ 
guitar 1 intro 3/verse 2: 
e|---------------------------------| 
B|---------------------------------| 
G|---4---4---4---4---4---4---4---4-| 
D|-4-4-4-4-4-4-4-4-4-4-4-4-4-4-4-4-| 
A|-2---2---2---2---2---2---2---2---| 
E|---------------------------------| 

verse 1: 
e|--------------------------------------------------------------------------| 
B|--------------------------------------------------------------------------| 
G|--------------------------------------------------------------------------| 
D|-9-9-99--9-9-9-99--9--------------------------12--9-9-99--9-9-9-99--9-----| 
A|-7-7-77--7-7-7-77--7--10-10-1010--10--7-7-77--10--7-7-77--7-7-7-77--7--10-| 
E|-----------------------8--8--8-8---8--5-5-55----------------------------8-| 
^^ ^^ ^ ^ ^^ ^^ ^^ 
e|-----------------------------------------------------------------------| 
B|-----------------------------------------------------------------------| 
G|-----------------------------------------------------------------------| 
D|------------------------9-9-99--9-9-9-99--9----------------------------| 
A|-10-1010--10--7-777777--7-7-77--7-7-7-77--7--10-10-1010--10--7-7-77--7-| 
E|--8--8-8---8--5-555555------------------------8--8--8-8---8--5-5-55--5-| 
^ ^ ^^^^^^ ^^ ^^ ^ ^ ^^ 
fill: 
e|--------| 
B|--------| 
G|--------| 
D|-12--11-| 
A|-10---9-| 
E|--------| 

chorus: 
e|---------------------------------------------------------------------------| 
B|---------------------------------------------------------------------------| 
G|---------------------------------------------------------------------------| 
D|-9-9-9-9-9-9-9-9-9-9-9-9---------------------------4-4-4-4-4-4-4-4-4-4-4-4-| 
A|-7-7-7-7-7-7-7-7-7-7-7-7--5-5-5-5-5-5-5-5-5-5-5-5--2-2-2-2-2-2-2-2-2-2-2-2-| 
E|--------------------------3-3-3-3-3-3-3-3-3-3-3-3--------------------------| 

e|-------------------------| 
B|-------------------------| 
G|-------------------------| 
D|-------------------------| 
A|-5-5-5-5-5-5-5-5-5-5-5-5-| 
E|-3-3-3-3-3-3-3-3-3-3-3-3-| 

outro: 
e|-----------| 
B|-----------| 
G|-----------| 
D|-12--11--9-| 
A|-10---9--7-| 
E|-----------| 

song structure: 

guitar 1 intro 1/guitar 2 intro x2 
guitar 1 intro 2 
guitar 1 intro 3 
verse 1 
verse 2 
verse 1 
verse 2 
fill 
chorus 
fill 
verse 3 
verse 2 
verse 1 
verse 2 
fill 
chorus 
fill 
verse 3 modified a bit 
outro:
            
Submit corrections

comments powered by Disqus
↑ Back to top | Vandals Tabs for Stop Smiling. Lyrics for acoustic guitar and electric guitar. 1 Tablatures and chords are parodies/interpretations of the original songs. You may use it for private study, scholarship, research or language learning purposes only