» » »

Slap Of Love Tabs (ver.1)

Artists:  A B C D E F G H I J K L M N O P Q R S T U V W X Y Z # 

Slap Of Love Tabs (ver.1)

Vandals
Rating:
0/5 (0 votes)

Hard to play? Try these video lessons and learn fast.
                Intro Riff: 
e|------------------------------------------------------------------- | 
B|---------0--0---0----0-----0----0-----------------------------------| 
G|---3------3-3--------3-3---3----3-----------------------------------| 
D|--4---4----4-4------4---4----4--------------------------------------| 
A|-4-----4------4----4-----4----4-------------------------------------| 
E|2-------2------0--2-------------------------------------------------| 

Bass, played w/ guitar intro: 
e|--------------------------------------------------------------------| 
B|--------------------------------------------------------------------| 
G|--------------------------------------------------------------------| 
D|--------------------------------------------------------------------| 
A|--------------------------------------------------------------------| 
E|2-02--------------2-02----------------------------------------------| 

Do you love me baby? *yes!* Well, how much do you love me? *Mmm, a whole bunch! 
Well how much is a whole bunch? *...I don't know!* THIS MUCH? (smack) *Ow!* 
e|--------------------------------------------------------------------| 
B|--------------------------------------------------------------------| 
G|--------------------------------------------------------------------| 
D|4---4-------4---4---------------------------------------------------| 
A|4---4-------4---4---------------------------------------------------| 
E|2-0-2-0-2-0-2-0-2-0-2-0---------------------------------------------|
            
Hard to play? Try these video lessons and learn fast. | Correct




comments powered by Disqus
↑ Back to top | Tablatures and chords are parodies/interpretations of the original songs. You may use it for private study, scholarship, research or language learning purposes only