» » »

Punk As Fck Tabs (ver.1)

Artists:  A B C D E F G H I J K L M N O P Q R S T U V W X Y Z # 

Punk As Fck Tabs (ver.1)

Vandals
Rating:
0/5 (0 votes)

Hard to play? Try these video lessons and learn fast.
                Sounds Pretty Right

Intro and Verse 
e|---------------------------------------------------------------------------| 
B|---------------------------------------------------------------------------| 
G|2------2------2-----2------------------------------------------------------| 
D|2-2-2--2-2-2--2-2-2-2------------------------------------------------------| 
A|0-2-2--0-2-2--0-2-2-4------------------------------------------------------| 
E|--0-4----0-4----0-4--------------------------------------------------------| 

Bridge 
e|---------------------|------------------------------------------------------| 
B|---------------------|------------------------------------------------------| 
G|---------------------|--2---------------------------------------------------| 
D|4-4-4-4-4-4-4-4-2--3x|2 4---------------------------------------------------| 
A|4-4-4-4-4-4-4-4-2----|4-4---------------------------------------------------| 
E|0-2-0-2-0-2-0-2-0----|4-----------------------------------------------------|
            
Hard to play? Try these video lessons and learn fast. | Correct




comments powered by Disqus
↑ Back to top | Tablatures and chords are parodies/interpretations of the original songs. You may use it for private study, scholarship, research or language learning purposes only