» » »

Vandals, Pizza Tran Tabs (ver.1)

Artists:  A B C D E F G H I J K L M N O P Q R S T U V W X Y Z # 

Pizza Tran Tabs (ver.1)

Vandals Tabs
Rating:
0/5 (0 votes)
Pizza Tran lessons Tabs too difficult? Try these video lessons and learn fast
                

this song is off the live dvd, from the house of blues.
there is one part to be explained:
the part with the impossible pull offs (12p2, 12p3) is done by
fretting the lower notes eg 3, 4,5 etc with the right hand
,and the tapping at the twelfth fret is done with the left hand.
while the left taps (12p0) the right slides up the neck, but i have
provided the tab of the notes he uses just for easier reading. if you
dont believe me, watch the dvd, he does do it!! another person to use
this technique is mr Joe Satriani! so it is real! anyway enjoy, play with lots of energy
and on the very fast chromatic fills, dont worry bout slight note errors,
they are played very fast and randomly so use the technique
shown for each fill and just go nuts!! (the fills are the ones on the G string!)
well thats the whole song. hope you enjoy, this took me a while to tab! please leave a comment
, as i said, im not a tab book, if there is an error it will be very slight as i
have checked this over thourougly! and BUY THE DVD! THIS IS NOT THE ORIGINAL ALBUM VERSION!
STANDARD TUNING---oh PH means pinch harmonicTempo very fast punk-about 180---|bpm
|-----------------------------------------------/13-12-----------------|-----|
|-/13-----------------0-------------13-----------------13--------------|-----|
|------9----9b--------0-12b14r12b14----b14r12-------------12h141414-12-|-----|
|----------------10---0------------------------------------------------|-----|
|---------------------0------------------------------------------------|-----|
|----------------------------------------------------------------------|-----|
           ! PH !             introsolo
|-----------------------------------------------|----------------------------|
|-----------------------------------------------|----------------------------|
|-0-t12p2-t12p3-t12p4-t12p5-t12p6-t12p7-t12p8-/-|----------------------------|
|-----------------------------------------------|----------------------------|
|-----------------------------------------------|----------------------------|
|-----------------------------------------------|----------------------------|
 
|----------------------------------------------------------------------------|
|----------------------------------------------------------------------------|
|----------4444-5555----------4444-5555----------4444-5555--5----------------|
|-55555555-2222-3333-55555555-2222 3333-55555555-2222-3333--5---2-0---2-0----|
|-33333333-----------33333333-----------33333333------------3-------3----3|--|
|----------------------------------------------------------------------------|
   verse    watch out for fast palmmuting
|------------------------------------------------------------------------|--|
|------------------------------------------------------------------------|--|
|-------------------33333--0-3p0h3p0h4p0h4p0h5p0h5p0h6p0h7p0h8p0h9p0h10p0|--|
|-------------55555------------------------------------------------------|--|
|-------11111------------------------------------------------------------|--|
|-33333------------------------------------------------------------------|--|
    2ndsolo
|-------------------------12-13-15-15b-15-15-15-|-15151515\13131313\---------|
|-----------13---12-13-15-----------------------|----------------------------|
|-h11p0h12--------------------------------------|----------------------------|
|-----------------------------------------------|----------------------------|
|-----------------------------------------------|----------------------------|
|-----------------------------------------------|----------------------------|
                                                  very fast trem pick these
-12121212\10101010\8888\7777\5555\3333\1111--------------------|-------------|
-------------------------------------------\5555\3333\1111-----|-----20------|
-----------------------------------------------------------5555|-/17----17---|
---------------------------------------------------------------|-------------|
---------------------------------------------------------------|-------------|
---------------------------------------------------------------|-------------|
                                                                normal
--------------|--------------------------------------------------------------|
--------------|--------------------------------------------------------------|
--------------|-------------------33333-------2h4/5p3h5/7p5h7/9p7h9/10p8h10--|
-17---15--17--|-------------55555--------------------------------------------|
--------------|-------11111--------------------------------------------------|
--------------|-33333--------------------------------------------------------|
                           do the verse twice then this solo
---------------------------------------------------------------------------


-----------------------------------------------------------------------------|
-----------------------------------------------------------------------------|
/12p10h12/14p12h14/16p14h16/17--17-------------let ring to feedback----------|
|----------------------------------------------------------------------------|
-----------------------------------------------------------------------------|
--------------------------------------------------------------------------|--|


|-----------------------------------------|----------------------|-----------|
|-----------------------------------------|---\/\/\--------------|-----------|
|-5---------------------------------33333-|-\/\/\--\/\/\/\/\/----|-----------|
|-5--2-0---2-0----------------55555-------|-////\\---------------|-----------|
|-3------3-----3--------11111-------------|-\///\/\/-------------|-----------|
|-----------------33333-------------------|-----\/\/\/\/\/\/\/---|-----------|
   no guitar for a versethen                   random slides!!!!!
|----------------------------------------------------17-19-19b20r19rb20|----|
|-20---20--20-------------------------------17-18-20-------------------|----|
|-19b--19b-19b--19b21r19--17-19-17-17-17-19----------------------------|----|
|----------------------------------------------------------------------|----|
|----------------------------------------------------------------------|----|
|----------------------------------------------------------------------|----|
  solo
|-19----19--------19-------19-------19-------19-------19----|----------------|
|----20-----19b21----19b21----19b21----19b21----19b21-------|----------------|
|-----------------------------------------------------------|----------------|
|-----------------------------------------------------------|----------------|
|-----------------------------------------------------------|----------------|
|-----------------------------------------------------------|----------------|

|--------------------------------|------------------x2 or x4-----------------|
|--------------------------------|------------------|------------------------|
|--------------------------------|--------4444-5555-|------------------------|
|-5-2---5-2---5-2-3-0---3-0---3-0|555555552222-3333-|------------------------|
|-----3-----3---------2-----2----|33333333----------|------------------------|
|--------------------------------|------------------|------------------------|
next part
|--------------------------------|------------------x2---or x4---------------|
|--------------------------------|------------------|------------------------|
|--------------------------------|--------4444-5555-|------------------------|
|-5-2---5-2---5-2-3-0---3-0---3-0|555555552222-3333-|------------------------|
|-----3-----3---------2-----2----|33333333----------|------------------------|
|--------------------------------|------------------|------------------------|

end on

!-------|
!-------|
!-------|
!-2-----|
!-------|
!-------|

   next part
            

comments powered by Disqus
↑ Back to top | Vandals Tabs for Pizza Tran. Lyrics for acoustic guitar and electric guitar. Tablatures and chords are parodies/interpretations of the original songs. You may use it for private study, scholarship, research or language learning purposes only