» » »

Vandals, Pizza Train Tabs (ver.1)

Artists:  A B C D E F G H I J K L M N O P Q R S T U V W X Y Z # 

Pizza Train Tabs (ver.1)

Vandals Tabs
Rating:
0/5 (0 votes)
Pizza Train lessons Tabs too difficult? Try these video lessons and learn fast
                INTRO: 
e|-------------------------------8---------13-12-----------------------------| 
B|-11-----------------------8-8---------13-------13--------------------------| 
G|-------9-----9-9-9--------------------------------12-14-14-14-14-14-14-12--| 
D|-------------------10------------------------------------------------------| 
A|---------------------------------------------------------------------------| 
E|---------------------------------------------------------------------------| 

VERSE PART #1: (repeat 3x per verse) 
e|---------------------------------------------------------------------------| 
B|---------------------------------------------------------------------------| 
G|--------------------------9-9-9-9--10-10-10-10-----------------------------| 
D|-10-10-10-10-10-10-10-10--9-9-9-9--10-10-10-10-----------------------------| 
A|-10-10-10-10-10-10-10-10--7-7-7-7---8--8--8--8-----------------------------| 
E|--8--8--8--8--8--8--8--8---------------------------------------------------| 

VERSE PART #2: (play once) 
e|---------------------------------------------------------------------------| 
B|---------------------------------------------------------------------------| 
G|---------------------------------------------------------------------------| 
D|-10-10-10-10-10-10-10-10--2--0-----2--0------------------------------------| 
A|-10-10-10-10-10-10-10-10--------3--------3---------------------------------| 
E|--8--8--8--8--8--8--8--8---------------------------------------------------| 

VERSE PART #3: (play twice) 
note: this part is optional, alternately just create some hideous feedback) 
e|---------------------------------------------------------------------------| 
B|---------------------------------------------------------------------------| 
G|---------------------------------------------------------------------------| 
D|---------------------------------------------------------------------------| 
A|----------1---1---1-----------1---1---1------------------------------------| 
E|-3-3--3-3---3---3----3-3--3-3---3---3--------------------------------------| 

SOLO #1 1ST PART UNKNOWN 

SOLO #1 2ND PART: 
e|---------------------------------------12--12-12-12--12-12-12--------------| 
B|--------------------10-12-12--12--12---------------------------------------| 
G|----------9-10-12----------------------------------------------------------| 
D|-9-10-12-------------------------------------------------------------------| 
A|---------------------------------------------------------------------------| 
E|---------------------------------------------------------------------------| 

BACK TO VERSE 

DRUM SOLO: 

NO GUITAR UNTIL END OF NEXT VERSE 
e|---------------------------------------------------------------------------| 
B|---------------------------------------------------------------------------| 
G|---------------------------------------------------------------------------| 
D|--------------------------2--0-----2--0------------------------------------| 
A|--------------------------------3--------3---------------------------------| 
E|---------------------------------------------------------------------------| 

THEN VERSE PART #3 

SOLO #2 1ST PART UNKNOWN 

SOLO #2 CONT'D 
e|-----------------------13-12-----------------------------------------------| 
B|-----------------------------13--------------------------------------------| 
G|---------------------------------12-14-14-14--14-14-14-12------------------| 
D|-????????????????????------------------------------------------------------| 
A|---------------------------------------------------------------------------| 
E|---------------------------------------------------------------------------| 

OUTRO: 
e|---------------------------------------------------------------------------| 
B|---------------------------------------------------------------------------| 
G|---------------------------------------------------------------------------| 
D|--5---2------5---2------5---2----3---0------3---0------3---0---------------| 
A|---------3----------3--------------------2-----------2---------------------| 
E|---------------------------------------------------------------------------| 

PLAY VERSE PART #1 TWICE 

OUTRO 

PLAY VERSE PART #1 TWICE 

END ON: 
e|--8------------------------------------------------------------------------| 
B|--8------------------------------------------------------------------------| 
G|--9------------------------------------------------------------------------| 
D|-10------------------------------------------------------------------------| 
A|-10------------------------------------------------------------------------| 
E|--8------------------------------------------------------------------------|
            
Submit corrections

comments powered by Disqus
↑ Back to top | Vandals Tabs for Pizza Train. Lyrics for acoustic guitar and electric guitar. Tablatures and chords are parodies/interpretations of the original songs. You may use it for private study, scholarship, research or language learning purposes only