» » »

Vandals, Oi To The World Tabs (ver.2)

Artists:  A B C D E F G H I J K L M N O P Q R S T U V W X Y Z # 

Oi To The World Tabs (ver.2)

Vandals Tabs
Rating:
5/5 (1 vote)
Oi To The World lessons Tabs too difficult? Try these video lessons and learn fast
                The Vandals
Oi! to the World

Intro: 
e|-----------------------------------------------------------------------| 
B|-----------------------------------------------------------------------| 
G|-----------------------------------------------------------------------| 
D|-----------------------------------------------------------------------| 
A|-9-9--2-2-2-2-6-6-6-6-7-7-7-7-9-9-9-9--2-2-2-2-6-6-6-6-7-7-7-7-9-9-9-9-| 
E|-7-7--0-0-0-0-4-4-4-4-5-5-5-5-7-7-7-7--0-0-0-0-4-4-4-4-5-5-5-5-7-7-7-7-| 

e|--------------------------------------------| 
B|--------------------------------------------| 
G|----------------------------------------9-9-| 
D|-9-9-8-6-4-4-6-4----------------------------| 
A|-7-7-6-4-2-2-4-2-6-6-6-6-7-6-2-2-2-2-2--7-7-| 
E|-----------------4-4-4-4-5-4-0-0-0-0-0------| 

Verse: 
e|--------------------------------------------------------| 
B|--------------------------------------------------------| 
G|--------------------------------------------------------| 
D|--------------------------------------------------------| 
A|-2-2-2-2-6-6-6-6-7-7-7-7-9-9-9-9------6-6-7-7-6-4-2-2-2-| 
E|-0-0-0-0-4-4-4-4-5-5-5-5-7-7-7-7--3X--4-4-5-5-4-2-0-0-0-| 

e|-----------------------------------------| 
B|-----------------------------------------| 
G|-----------------------------------------| 
D|-----------------------------------------| 
A|-2-2-2-2-6-6-6-6-7-7-7-7-9-9-9-9-2-6-7-9-| 
E|-0-0-0-0-4-4-4-4-5-5-5-5-7-7-7-7-0-4-5-7-| 

e|--------------------------------------------| 
B|--------------------------------------------| 
G|----------------------------------------9-9-| 
D|-9-9-8-6-4-4-6-4----------------------------| 
A|-7-7-6-4-2-2-4-2-6-6-6-6-7-6-2-2-2-2-2--7-7-| 
E|-----------------4-4-4-4-5-4-0-0-0-0-0------| 

Chorus: 
e|------------------------------------------------------------| 
B|------------------------------------------------------------| 
G|--------------------------------------------------------9-9-| 
D|-----------------9-9-8-6-4-4-4-4----------------------------| 
A|-7-7-7-7-9-9-9-9-7-7-6-4-2-2-2-2-6-6-7-7-6-6-6-2-2-2-2--7-7-| 
E|-5-5-5-5-7-7-7-7-----------------4-4-5-5-4-4-4-0-0-0-0------| 

Verse2: 
e|-------------------------------------| 
B|-------------------------------------| 
G|-------------------------------------| 
D|-------------------------------------| 
A|-2-2-2-2-6-6-6-6-7-7-7-7-9-9-9-9-----| 
E|-0-0-0-0-4-4-4-4-5-5-5-5-7-7-7-7--2X-| 

e|--------------------------------------------| 
B|--------------------------------------------| 
G|----------------------------------------9-9-| 
D|-9-9-8-6-4-4-6-4----------------------------| 
A|-7-7-6-4-2-2-4-2-6-6-6-6-7-6-2-2-2-2-2--7-7-| 
E|-----------------4-4-4-4-5-4-0-0-0-0-0------| 

Chorus: 
e|------------------------------------------------------------| 
B|------------------------------------------------------------| 
G|--------------------------------------------------------9-9-| 
D|-----------------9-9-8-6-4-4-4-4----------------------------| 
A|-7-7-7-7-9-9-9-9-7-7-6-4-2-2-2-2-6-6-7-7-6-6-6-2-2-2-2--7-7-| 
E|-5-5-5-5-7-7-7-7-----------------4-4-5-5-4-4-4-0-0-0-0------| 

Solo/Bridge: 
e|------------------------------| 
B|------------------------------| 
G|------------------------------| 
D|------------------------------| 
A|-6-7-9-7-4-7-4--4-2-9-7-6-4-2-| 
E|-4-5-7-5-6-5-2--2-0-7-5-4-2-0-| 

e|-------------------------------------| 
B|-------------------------------------| 
G|-------------------------------------| 
D|-------------------------------------| 
A|-2-2-2-2-6-6-6-6-7-7-7-7-9-9-9-9-----| 
E|-0-0-0-0-4-4-4-4-5-5-5-5-7-7-7-7--4X-| 
^ Palm muted ^ 

e|-------------------------------------| 
B|-------------------------------------| 
G|-------------------------------------| 
D|-------------------------------------| 
A|-2-2-2-2-6-6-6-6-7-7-7-7-9-9-9-9-----| 
E|-0-0-0-0-4-4-4-4-5-5-5-5-7-7-7-7--2X-| 

e|--------------------------------------------| 
B|--------------------------------------------| 
G|----------------------------------------9-9-| 
D|-9-9-8-6-4-4-6-4----------------------------| 
A|-7-7-6-4-2-2-4-2-6-6-6-6-7-6-2-2-2-2-2--7-7-| 
E|-----------------4-4-4-4-5-4-0-0-0-0-0------| 

e|----------------------------------------------------------------| 
B|----------------------------------------------------------------| 
G|--------------------------------------------------------9-9-----| 
D|-----------------9-9-8-6-4-4-4-4--------------------------------| 
A|-7-7-7-7-9-9-9-9-7-7-6-4-2-2-2-2-6-6-7-7-6-6-6-2-2-2-2--7-7-----| 
E|-5-5-5-5-7-7-7-7-----------------4-4-5-5-4-4-4-0-0-0-0-------2X-| 

Outro riff 
e|-16b-16b-| 
B|-15b-15b-|
            
Submit corrections

comments powered by Disqus
↑ Back to top | Vandals Tabs for Oi To The World. Lyrics for acoustic guitar and electric guitar. Tablatures and chords are parodies/interpretations of the original songs. You may use it for private study, scholarship, research or language learning purposes only