» » »

Nimby Tabs (ver.1)

Artists:  A B C D E F G H I J K L M N O P Q R S T U V W X Y Z # 

Nimby Tabs (ver.1)

Vandals
Rating:
0/5 (0 votes)

Hard to play? Try these video lessons and learn fast.
                e|---------------------------------------------------------------| 
B|---------------------------------------------------------------| 
G|---------------------------------------------------------------| 
D|---------1-----------------------------------------------------| 
A|-2-2-4--------4--2-------------2-------------------------------| 
E|----------------------4---4b-------2b--------------------------| 


e|-----------------------P.M. . . . . . . .----------------------| 
B|---------------------------------------------------------------| 
G|--------------------------------------------4------------------| 
D|-------------------------------1---2--4------------------------| 
A|---------1-----------------2-----------------------------------| 
E|-2--2--4------4--2--0------------------------------------------| 

e|----------------------------P.M. . . . . . . . . .-------------| 
B|---------------------------------------------------------------| 
G|---------------------------------------------------------------| 
D|------------1-------------------1--------------2---------------| 
A|-2--2---4-------4---2---------------4---2----------------------| 
E|------------------------4-------------------4------------------| 

e|P.M. . . . . . . . . . . . . . . . . . . 
.----------------------------------------------------------------| 
B|---------------------------------------------------------------| 
G|-3-3--3---4--3-----------------4--3--4--3------3---------------| 
D|-4-4--4---4--4----1------------4--4--4--4----------------------| 
A|---------------------4---2-------------------------------------| 
E|---------------------------------------------------------------| 

VERSE(something like that..): 
e------------------2-2---------------------x-x-x-------- 
B-3-3-3--3-3-3--3--3-3---------------------0-0-0--3-3-3- 
G-4-4-4--4-4-4--4--2-2--6-6--3-3-3--3-3-3--1-1-1--4-4-4- 
D-4-4-4--4-4-4--4-------7-7--4-4-4--4-4-4--2-2-2--4-4-4- 
A-2-2-2--2-2-2--2-------7-7--4-4-4--4-4-4--2-2-2--2-2-2- 
E-----------------------5-5--2-2-2--2-2-2--0-0-0-------- 
PM............... PM......................... 

CHORUS: 
B, E, D, E 

order: 
1. RIFF 5. VERSE 2X 9. RIFF 
2. VERSE 2X 6. CHORUS 2X 10. VERSE 2X 
3. CHORUS 2X 7. RIFF 11. CHORUS 2X 
4. RIFF 8. SOLO (??) 12. RIFF
            
Hard to play? Try these video lessons and learn fast. | Correct




comments powered by Disqus
↑ Back to top | Tablatures and chords are parodies/interpretations of the original songs. You may use it for private study, scholarship, research or language learning purposes only